Deep Purple

Deep Purple
Lay Down Ver 2 (Guitar tab)

#
#

Date: Thu, 23 May 1996 10:12:48 +0200 (MET DST)
From: Pasztor Andras


Deep Purple:

Lay Down Stay Down /Burn/


Normal tuning
riff1A: guitar1
|---------------------------------------------------------------------------
|---------------------------------------------------------------------------
|------------5----------------------5--6--7----------------5-----------------
|------5--7-----7--5--7-------5--7-----------5-------5--7-----7--5--7--------
|--/7---------------------/7---------------------/7--------------------------
|---------------------------------------------------------------------------

end riff1A
|-----------------------------------------------------------------------------
|---------------------5----------------------------------------------5----8---
|------------5--6--7---------------5-----------------------5--6--7------------
|------5--7------------------5--7------7--5--7-------5--7---------------------
|--/7--------------------/7----------------------/7---------------------------
|-----------------------------------------------------------------------------

Riff1B: guitar2
|---------------------------------------------------------------------------
|---------------------------------------------------------------------------
|---------------------------------------------------------------------------
|---------------------------------------------------------------------------
|---------0--3--0-----0----------0--3--4--5-------------0--3--0-----0-------
|---0--3-----------3-------0--3-------------3-----0--3-----------3----------

end riff1B
|---------------------------------------------------------------------------
|-------------------------------------------------------------------5----8--
|----------------------------------5-----------------------5--6--7----------
|---------------------2------5--7-----7--5--7--------5--7-------------------
|---------0--3--4--5-----/7----------------------/7-------------------------
|---0--3--------------------------------------------------------------------

fill1:
|-----------
|-----------
|-----------
|--7--7-----
|--7--7-----
|--5--5-----

intro:
riff1A+riff1B
fill1


Riff2
|--------------------------|--------------------------|-----------------------
|--------------------------|--------------------------|-----------------------
|--------------------------|--------------------------|-----------------------
|--7-7---------------------|---------------7----------|--7-7------------------
|--5-5----------5----7-7\--|--5-5----------5----7-7\--|--5-5--------5---7-7\--
|---------------3----5-5\--|--3-3---------------5-5\--|-------------3---5-5\--

riff3
|---------------------------------------------
|---------------------------------------------
|-----------------------------------5---------
|--------------------------------5------------
|--3--4--5-----------3--4--5--7---------------
|-----------3--4--5---------------------------

Verse1:
1x riff2:

I don't care if my lady's gone
as long as you give me just what I want
I've been losin' my direction

1x riff3:
got to find a new connection

fill1

Verse2:
1x riff2:

You have wasted the love I tasted
now I'm really gettin' hungry more and more
Been a long time ,had a bad sign

1x riff3:
Tell me what am I fighting for?

riff4:
|-----------------------------------------------------------------------------
|-----------------------------------------------------------------------------
|-----------------------------------------------------------------------------
|--------------7--7--5--7----------------7--7--5--7---------------------------
|-7--7--7--7---5--5--5--5---7--7--7--7---5--5--5--5---7--7--7--7---5--5--5--5-
|-5--5--5--5----------------5--5--5--5----------------5--5--5--5---3--3--3--3-

Chorus:
riff4:
Let me know you feel it
you now I really need it
Keep on pushin' for more
riff3:
Lay down,stay down

riff4:
I got something to find
there's one thing I really need
I'm gonna tell you right now
riff3:
Lay down,stay down

Riff1A+riff1B
fill1

Verse3
riff2:
Lookin' for trouble, I guess that's right
When I was young Iwas taught to fight
It's been long gone since I had known
riff3:
Now I'm headin' for some more

Chorus:
riff4:
Let me know you feel it
you now I really need it
Keep on pushin' for more
riff3:
Lay down,stay down

riff4:
I got something to find
there's one thing I really need
I'm gonna tell you right now
riff3:
Lay down,stay down

Riff1A+riff1B
solo

Chorus:
riff4:
Let me know you feel it
you now I really need it
Keep on pushin' for more
riff3:
Lay down,stay down

riff4:
I got something to find
there's one thing I really need
I'm gonna tell you right now
riff3:
Lay down,stay down

Riff5:Dramatic ritard.............................
|
|----------------------------------------------------
|----------------------------------------------------
|------------7------------------------------2--------
|------5--7-----7--5--7------5--7-----------2--------
|---7---------------------7--------6--5--3--0--------
|----------------------------------------------------

Transcribed by Andrew

OptimusPrime

Toegevoegd door OptimusPrime op do 14 aug, 2003 4:36 pm

Auteur: ?
Componist: ?
Uitgever: ?
Taal: Engels

Reacties

CommonCrawl [Bot]

Volg Muzikum