Deep Purple

Deep Purple
Fireball Ver 3 (Guitar tab)

fireball

intro
(drum solo)

riff 1 2x
---------------------------------- -----
---------------------------------- -----
---------------------------------- -----
---------------------------------- -----
----------------------------5----- -----
-5h7-7-7--7-7-7-7--7-7-7-7----7-5- -(7)-

verses
(w/riff 1)
(1)the golden light above you shown me where your from
(2)tried to understand you tried to love you right
(3)racing like a fireball dancing like a ghost
(4)the golden light above you shows me where your from

the magic in your eye bewitches all you gaze upon
the way you smile and touch me sets my heart alight
youre gemini and i dont know which one I like the most
the magic in your eye bewitches all you gaze upon

stand upon a hill we bebop all around you
your lips are like a fire burning through my soul
your head is getting broken and my mind is getting bust
stand upon a hill we bebop all around you

they wonder where your from they wonder where i found you
the people ask me where your from they really want to know
but now im coming with you down the road of golden dust
they wonder where your from they wonder where i found you

chorus
A E B F#7
oh my love(2x,soul) its a long way where your from its a long way

bridge
(riff 2) (riff 3)
G D F#sus4 F
--------------------------------- --------------------------
--------------------------------- --------------------------
--------------------------------- --------------------------
--------------------------------- --------------------------
-------0-2-2-2-2-3-3-3-3-4-4-4-4- --------3-4-3-4-3-4-3-4---
-3-3-3--------------------------- -2--2-2-----------------2-

(play muted 8th bass notes)
E C#
magic woman wrecking up my soul
C G(riff 2)
things you tell me have never been told
D A
magic woman i dont know
F#sus4 (riff 3) F#
electric before me i love you so i love you so oh oh oh

OptimusPrime

Toegevoegd door OptimusPrime op do 14 aug, 2003 4:36 pm

Auteur: ?
Componist: ?
Uitgever: ?
Taal: Engels

Reacties

CommonCrawl [Bot]

Volg Muzikum