Deep Purple

Deep Purple
Deep When Blind Man Cries S (Guitar tab)

Untitled Document











Author/Artist: Deep Purple
Title: When a Blind man Cries(solo)
Transcribed by: Alanx
Email: Alanx@eircom.net

----------------------------------|-------------------------------------------
----------------------------------|-----10--7---------------------------------
-----7----9b--9b--9b--9b--9b--9b--|------------7--9---9--9--9v----------------
--9-------------------------------|-------------------------------------------
----------------------------------|-------------------------------------------
----------------------------------|-------------------------------------------


----------------------------------|------------------------------------7------
--7-------------------------------|---7---10b-10b-10b-10b-10b----7--10--------
-----7--6--7--7b-----7--6--4v-----|-------------------------------------------
----------------------------------|-------------------------------------------
----------------------------------|-------------------------------------------
----------------------------------|-------------------------------------------


--10-10-10-9-7---5-----7---------------|--------------------------------------
---------------7---6-7---7-----5-3h5p3-|--------------------------------------
---------------------------7-4---------|--6--7--7b---------------7--9b-9b-9b--
---------------------------------------|--------------9--7--9--9--------------
---------------------------------------|--------------------------------------
---------------------------------------|--------------------------------------


-----------------------------------|------10---------10-----------------------
-----------------------------------|--10b----10b-10b----10b---10b-10v---------
-9b----------7---9b-9b-9b-9b-------|------------------------------------------
----------9------------------------|------------------------------------------
-----------------------------------|------------------------------------------
-----------------------------------|------------------------------------------


-10--10--10-10-10b-10-10b-10-------|------------------------------------------
-----------------------------10b-10|----------10------------------------------
-----------------------------------|--9--9-------11--------9-----9---7--------
-----------------------------------|----------------12-------------9----------
-----------------------------------|------------------------------------------
-----------------------------------|------------------------------------------


-----------------------10b-10b-10---------------------------------------------
--7------------10b-----------------10bv---------------------------------------
----9--7-----7----------------------------------------------------------------
---------9--------------------------------------------------------------------
------------------------------------------------------------------------------
------------------------------------------------------------------------------

OptimusPrime

Toegevoegd door OptimusPrime op do 14 aug, 2003 4:36 pm

Auteur: ?
Componist: ?
Uitgever: ?
Taal: Engels

Reacties

CommonCrawl [Bot]

Volg Muzikum