Deep Purple

Deep Purple
Child In Time (Bass tab)

Song: Child In Time
Artist: Deep Purple
Album: In Rock

G||--------------------||----------------------|
D||--------------5--5--||*--7------------5--5--|
A||--------------------||*---------------------|
E||--------------------||----------------------|



---------------------|---------------------|
--7------------3--3--|--5------------5--5--|
---------------------|---------------------|
---------------------|---------------------|



----------------------||
--7------------5--5--*||
---------------------*||
----------------------||





---------------------------|---------------------------|
--7-----7-----7-----5---5--|--7-----7-----7-----3---3--|
------7-----7-----7---5----|------7-----7-----7----3---|
---------------------------|---------------------------|


x2
---------------------------|---------------------------|
--5-----5-----5-----5---5--|--7-----7-----7-----5---5--|
------5-----5-----5---5----|------7-----7-----7---5----|
---------------------------|---------------------------|





--------------------------|--------------------------|
--7---7-7---7-7---7-5--5--|--7---7-7---7-7---7-3--3--|
--------------------------|--------------------------|
--------------------------|--------------------------|


x4
--------------------------|--------------------------|
--5---5-5---5-5---5-5--5--|--7---7-7---7-7---7-5--5--|
--------------------------|--------------------------|
--------------------------|--------------------------|





-----------------------------------------|
--7--7-7-7-7--7-7-7-7--7-7-7-5-5-5-5-5-5-|
-----------------------------------------|
-----------------------------------------|



-----------------------------------------|
--7--7-7-7-7--7-7-7-7--7-7-7-3-3-3-3-3-3-|
-----------------------------------------|
-----------------------------------------|



-----------------------------------------|
--5--5-5-5-5--5-5-5-5--5-5-5-5-5-5-5-5-5-|
-----------------------------------------|
-----------------------------------------|


Guitar solo (slow part)
-------------------------------------|--------------------------|
--7--7-7-7-7--7-7-7-7--7-7-7-5-------|--7----7---5--7---5-------|
-------------------------------7-5---|--------------------7-5---|
-----------------------------------8-|------------------------8-|



----------------------------|----------------------------|
--7----7----------5-7-5-----|--7----5--------------4-5-6-|
--------------5-7-------5---|--------------5-6-7-8-------|
-----------8--------------8-|-----------7----------------|



------7-9-7-5---7p5-----------------|-----------5--7---7-5-----|
--7-----------7-----7-5---7h5-------|--7----7--------------7-5-|
------------------------7-----7-5---|--------------------------|
----------------------------------8-|--------------------------|



--7----7---7--5-----5-------|----------------------------|
----------------7-5---7-5---|--5----5--------------4-5-6-|
--------------------------8-|--------------5-6-7-8-------|
----------------------------|-----------7----------------|


Fast part x8
--------------------------|--------------------------|
--7----7---7--5-----------|--7---7-7---7-7---7-7---7-|
----------------7-5-3-----|--------------------------|
-----------------------3--|--------------------------|


x16
--------------------------|-----------------------|
--7---7-7---7-7---7-7---7-|--7---7-7---5-----6----|
--------------------------|-----------------------|
--------------------------|-----------------------|


x20
--------------------------|-----------------------|
--7---7-7---7-7---7-7---7-|------------5-----6----|
--------------------------|------5-7--------------|
--------------------------|--8--------------------|


x12
--------------------------|--||
--7---7-7---7-7---7-7-----|--||
------------------------7-|--||
--------------------------|--||

OptimusPrime

Toegevoegd door OptimusPrime op do 14 aug, 2003 4:36 pm

Auteur: Ian Gillan, Ian Paice, Jon Lord, Ritchie Blackmore, Roger Glover, Deep Purple
Componist: ?
Uitgever: EMI Records Ltd
Uitgegeven in: 2001
Taal: Engels
Beschikbaar op: 30 (1998), Deepest Purple (1980), In Rock (1970), Nobody's Perfect (1988), The Platinum Collection (2005)

Reacties

CommonCrawl [Bot]

Volg Muzikum