Deep Purple

Deep Purple
Black Night Ver 5 (Guitar tab)

black night

chords
A B5 G
0 # 3
2 # 3
2 4 4
2 4 5
0 2 5
# # 3

intro
Em Bm/D Bm G
-------------------------------------------------
-------------------------------------------------
-------------------------------------------------
-2-2-2-2-2-2-0-0-0-0-0-0-------------------------
-------------------------2-2-2-2-2-2-------------
-------------------------------------3-3-3-3-3-3-

main riff Verse riff
E
------------------------------------- -----------------
------------------------------------- -----------------
---0-----------0---2-0-----------0--- -----------------
-2---2-0---0-2---2-----2---0-2-----2- -----------------
---------2--------------------------- -5-7---7---7---7-
------------------------------------- -----0---0---0---

(1)black night is not right i dont feel so bright dont care to sit tight
(2)dont need a dark tree i dont want a rough sea i cant feel i cant see
(3)black night black night i dont need black night i cant see dark light

chorus
A
-------------------------
-------------------------
-------------------------
-2-0---0---0-4-2-0-2-0---
-----2---2-------------2-
-------------------------
maybe ill find on the way down the line that im free

G E
-------------------------------------12----------12-------
----------------------------------12----------12----15b17-
----------12----12-14-12-12-14b15-------14b15-------------
-------12----14-------------------------------------------
-12s14----------------------------------------------------
----------------------------------------------------------
free to be me

A G B5(wah bar)
black night is a long way from home

OptimusPrime

Toegevoegd door OptimusPrime op do 14 aug, 2003 4:36 pm

Auteur: ?
Componist: ?
Uitgever: ?
Taal: Engels

Reacties

CommonCrawl [Bot]

Volg Muzikum