Deep Purple

Deep Purple
Black Night Ver 3 (Guitar tab)

***THIS IS THE AUTHORS SONG, NOT MINE, GIVE CREDIT TO THE AUTHOR***

Band: Deep Purple
Song: Black Night
Tabbed By: IWantACheeseBurgerPlease

|-----------------------------------------------------------|
|-----------------------------------------------------------|
|-----------------------------------------------------------|
|-----------------------------------------------------------|
|-7-7-7--7-7-7---5-5-5--5-5-5-------------------------------|
|-------------------------------7-7-7--7-7-7---3-3-3--3-3-3-|

|--------------------------------|
|--------------------------------|
|--------------------------------|
|--------------------------------|
|-----5----------5--7-5------5---|
|---7---7-5-3-5-7-7----7-5-7---7-|

OptimusPrime

Toegevoegd door OptimusPrime op do 14 aug, 2003 4:36 pm

Auteur: ?
Componist: ?
Uitgever: ?
Taal: Engels

Reacties

CommonCrawl [Bot]

Volg Muzikum