Deep Purple

Deep Purple
Black Night (the 1st Solo) (Guitar tab)

deep purple: black night
------------------------
tabbed by: me (hammerkill)
email: great_kyrk@yahoo.de


okey, here's the 1st solo of this great song. i'm not sure if it's right but
I think it sounds like the solo. please send me your comments, corrections,
etc. thank you guys.

while the solo guitar 2 is playing this:

A|-7--7--7---7--7--7---5--5--5---5--5--5-----------------------|
E|-----------------------------------------7--7--7----7--7--7--|

okey, here's the solo:
e|--------------------------------------------|
B|----------------------------------15-15/12--|
G|--14b16-12--12---12-----12----12------------|
........................ tremolo bar vibrato

e|--14b15---15-----14b15------15--(14)b15--14\(5)----5/(20)-|
B|--14b15---15----------14b15-15----------------------------|
G|----------------------------------------------------------|

e|-----------20-18-17-15-15h16----------------------------------|
B|-20b21------------------------17p15----15--17-----------------|
G|------------------------------------16--------16-15---14-12-14|

e|-----------------------------------------------------|
B|-----------------------------------------------------|
G|--14--12---------12-------14--------12--14--14---14--|
D|---------14--12--------14--------14------------------|

e|--12\10---12-12\10--12\10--12\10--12--12----12----12-|
tremolo bar vibrato .........................

e|-----------------------------------------------------------|
B|-----------------------------------------------------------|
G|--16--14--12-14---14-12--------------14---11-12-12--12\(4)-|
D|------------------------14p12--14-14-----------------------|

e|---------------------------------------------------------------|
B|---------------------------------------------------------------|
G|--12-9-9---7-9--10p9---7---9-----7--9p7------------------------|
D|-------------------------9-----9----------9---7h9p7------------|
A|-----------------------------------------------------10--7\(2)-|

weber

OptimusPrime

Toegevoegd door OptimusPrime op do 14 aug, 2003 4:36 pm

Auteur: ?
Componist: ?
Uitgever: ?
Taal: Engels

Reacties

CommonCrawl [Bot]

Volg Muzikum