Deep Purple

Deep Purple
Black Night (Bass tab)

Black Night - Bass Tab
By Deep Purple
Tuning Normal E-A-D-G
Tabbed by - Biggwhit biggwhit@hotmail.com


Start 0.04
G|-------------------------------------------------------------|
D|-----5---------------5------7---5-----------------------5----|
A|--7----7--5----5--7------7---------7---5---7---------------7-|
E|-------------7-----------------------------------------------|

G|-------------------------------------------------------------|
D|-----5---------------5------7---5-----------------------5----|
A|--7----7--5----5--7------7---------7---5---7---------------7-|
E|-------------7-----------------------------------------------|
0.17
G|-------------------------------------------------------|
D|-------------------------------------------------------|
A|-57777777-57777777-57777777-57777777-57777777-57777777-|
E|-------------------------------------------------------|
0.28
G|------------------------------------------------|
D|---------------------4--------------------------|
A|--7--5-----5-----5------7---5---7---5-----------|
E|--------7-----7-------------------------7---5---|

G|------------------------------------|
D|------------------------------------|
A|------------------------------------|
E|-55555555-33333333-0000000000000000-|

G|------------------------------------|
D|------------------------------------|
A|------------------------------------|
E|-55555555-33333333-7----------------| Hold the 7 for two 4x4 beats
|///////////////| to fill this gap

0.46
G|---------------------------------------------------------------|
D|-----5----------------5------7---5-----------------------5-----|
A|--7----7--5----5--7------7----------7---5---7---------------7--|
E|-------------7-------------------------------------------------|

G|---------------------------------------------------------------|
D|-----5----------------5------7---5-----------------------5-----|
A|--7----7--5----5--7------7----------7---5---7---------------7--|
E|-------------7-------------------------------------------------|
1.00
G|-------------------------------------------------------|
D|-------------------------------------------------------|
A|-57777777-57777777-57777777-57777777-57777777-57777777-|
E|-------------------------------------------------------|

G|-------------------------------------------------|
D|--------------------4----------------------------|
A|--7--5-----5-----5------7---5---7---5------------|
E|--------7-----7---------------------------7---5--|

G|------------------------------------|
D|------------------------------------|
A|------------------------------------|
E|-55555555-33333333-0000000000000000-|

G|------------------------------------|
D|------------------------------------|
A|------------------------------------|
E|-55555555-33333333-7----------------| Hold the 7 for two 4x4 beats
|///////////////| to fill this gap
1.30
G|-------------------------------------------------------|
D|-------------------------------------------------------|
A|-57777777-57777777-57777777-57777777-57777777-57777777-|
E|-------------------------------------------------------|

G|-------------------------------------------------------|
D|-------------------------------------------------------|
A|-57777777-57777777-57777777-57777777-57777777-57777777-|
E|-------------------------------------------------------|
1.50
G|-------------------------------------------------|
D|---------------------4---------------------------|
A|--7--5-----5-----5------7---5---7---5------------|
E|--------7-----7--------------------------7---5---|

G|-------------------------------------|
D|-------------------------------------|
A|-------------------------------------|
E|-55555555-33333333-55555555-33333333-|

G|-------------------------------------|
D|-------------------------------------|
A|-------------------------------------|
E|-55555555-33333333-55555555-33333333-|

G|-------------------------------------|
D|-------------------------------------|
A|-------------------------------------|
E|-55555555-33333333-55555555-33333333-|
2.15
G|---------------------------------------------------------------|
D|-----5----------------5------7---5-----------------------5-----|
A|--7----7--5----5--7------7----------7---5---7---------------7--|
E|-------------7-------------------------------------------------|

G|---------------------------------------------------------------|
D|-----5----------------5------7---5-----------------------5-----|
A|--7----7--5----5--7------7----------7---5---7---------------7--|
E|-------------7-------------------------------------------------|

G|-------------------------------------------------------|
D|-------------------------------------------------------|
A|-57777777-57777777-57777777-57777777-57777777-57777777-|
E|-------------------------------------------------------|
2.40
G|-------------------------------------------------|
D|---------------------4---------------------------|
A|--7--5-----5-----5------7---5---7---5------------|
E|--------7-----7---------------------------7---5--|

G|------------------------------------|
D|------------------------------------|
A|------------------------------------|
E|-55555555-33333333-0000000000000000-|

G|------------------------------------|
D|------------------------------------|
A|------------------------------------|
E|-55555555-33333333-7----------------| Hold the 7 for two 4x4 beats
|///////////////| to fill this gap
2.58
G|----------|
D|----------|
A|-57777777-|
E-----------| Repeat to fade (14 times)

Any comments or corrections please email biggwhit@hotmail.com

OptimusPrime

Toegevoegd door OptimusPrime op do 14 aug, 2003 4:36 pm

Auteur: Ian Gillan, Ian Paice, Jon Lord, Ritchie Blackmore, Roger Glover
Componist: ?
Uitgever: Edel Germany GmbH

Reacties

CommonCrawl [Bot]

Volg Muzikum