Deep Purple

Deep Purple
Black Knight Ver 2 (Guitar tab)

Song:Black Knight
Artist:Deep Purple
Tabbed by:John Smith

Intro (this is done on bass)
------------------------------------------------------
------------------------------------------------------
------------------------------------------------------
------------------------------------------------------
-7-7-7-7-7-7--5-5-5-5-5-5-----------------------------
---------------------------7-7-7-7-7-7--3-3-3-3-3-3---

Main Riff
------------------------------------------------------
------------------------------------------------------
------------------------------------------------------
----5--------------5---7--5---5----7------------------
-/7---7-5----5--7----7------7---7-----7---------------

OptimusPrime

Toegevoegd door OptimusPrime op do 14 aug, 2003 4:36 pm

Auteur: ?
Componist: ?
Uitgever: ?
Taal: Engels

Reacties

1 bericht

CommonCrawl [Bot]
Thran
do 23 okt, 2003 2:43 pm
the intro is correc, but the main riff is :
|--------------------------|
|--------------------------|
|--------------------------|
|-5--------5-7-5--------5--|
|7-7-5-5-7--7---7--5-7----7|
|-----7--------------------|
1 bericht • Pagina 1 van 1

Volg Muzikum