Deep Purple

Deep Purple
Black Dog (Guitar tab)

SONG: Black Dog
ARTIST: Led Zeppelin
TRANSCRIPTED BY: Maxime Lemerise
DATE: 20 october 2001

Note: I'm working on the solo. When I'll know it, I'll Modify my tab :)
But I'm sure that what I did is 99.9% correct.

b: Bend String
L.R.: Let Ring the note
x: palm mute

|------------------------------------------------------|
|------------------5-----------------------------------|
|-----------5b---7---575-----5-------------------2-----|
|---5-6-7------7---------7-7---7-5-7-7-----------2-----| (x3)
|-7-------7----------------------------5-7-3-5-0-0-----|
|------------------------------------------------------|
L.R.

|----------------|
|----------------|
|----------------|
|-----------5b---| (x3)
|---5-6-7------7-|
|-7-------7------|

|------------------------------------------------------------|
|----------------------------5-------------------------------|
|---------------------5b---7---575-----5-------------------2-|
|-------------5-6-7------7---------7-7---7-5-7-7-----------2-|
|---5-6-7-5-7-------7----------------------------5-7-3-5-0-0-|
|-7----------------------------------------------------------|

|-------------------------------------------------------------------------------|
|-------------------------------------------------------------------------------|
|---2-4-2-4-2---2-4-2-4-2---2--5-2-4-2-------2-4-2-------2-4-2-------2--5-2-----|
|---2-----------2-----------2--5-2-----4-2---2-----4-2---2-----4-2---2--5-2-----|
|-3-0---------3-0---------3-0--3-0---------3-0---------3-0---------3-0--3-0-----|
|-------------------------------------------------------------------------------|
L.R.

|------------------------------------------------------|
|------------------5-----------------------------------|
|-----------5b---7---575-----5-------------------2-----|
|---5-6-7------7---------7-7---7-5-7-7-----------2-----| (x2)
|-7-------7----------------------------5-7-3-5-0-0-----|
|------------------------------------------------------|
L.R.

|----------------------------3-3-| |-------|
|----------------------------3-2-| |-------|
|-2-2-2-0--2-2-5-2--2-2-2-0--0-3-| |-2-----|
|-2-2-2-0--2-2-5-2--2-2-2-0--0-0-| (x4) |-2-----|
|-0-0-0-0--0-0-3-0--0-0-0-0--2---| |-0-----|
|----------------------------3---| |-------|
x x x L.R.

|------------------------------------------------------|
|------------------5-----------------------------------|
|-----------5b---7---575-----5-------------------2-----|
|---5-6-7------7---------7-7---7-5-7-7-----------2-----| (x3)
|-7-------7----------------------------5-7-3-5-0-0-----|
|------------------------------------------------------|
L.R.

|----------------|
|----------------|
|----------------|
|-----------5b---| (x3)
|---5-6-7------7-|
|-7-------7------|

|------------------------------------------------------------|
|----------------------------5-------------------------------|
|---------------------5b---7---575-----5-------------------2-|
|-------------5-6-7------7---------7-7---7-5-7-7-----------2-|
|---5-6-7-5-7-------7----------------------------5-7-3-5-0-0-|
|-7----------------------------------------------------------|

|-------------------------------------------------------------------------------|
|-------------------------------------------------------------------------------|
|---2-4-2-4-2---2-4-2-4-2---2--5-2-4-2-------2-4-2-------2-4-2-------2--5-2-----|
|---2-----------2-----------2--5-2-----4-2---2-----4-2---2-----4-2---2--5-2-----|
|-3-0---------3-0---------3-0--3-0---------3-0---------3-0---------3-0--3-0-----|
|-------------------------------------------------------------------------------|
L.R.

|------------------------------------------------------|
|------------------5-----------------------------------|
|-----------5b---7---575-----5-------------------2-----|
|---5-6-7------7---------7-7---7-5-7-7-----------2-----| (x2)
|-7-------7----------------------------5-7-3-5-0-0-----|
|------------------------------------------------------|
L.R.

|----------------------------3-3-|
|----------------------------3-2-|
|-2-2-2-0--2-2-5-2--2-2-2-0--0-3-|
|-2-2-2-0--2-2-5-2--2-2-2-0--0-0-| (x13)
|-0-0-0-0--0-0-3-0--0-0-0-0--2---|
|----------------------------3---|
x x x

OptimusPrime

Toegevoegd door OptimusPrime op do 14 aug, 2003 4:36 pm

Auteur: Jimmy Page, John Paul Jones, Robert Plant
Componist: ?
Uitgever: Квадро-Диск, РАО
Uitgegeven in: 2004
Taal: Engels

Reacties

CommonCrawl [Bot]

Volg Muzikum