Deep Purple

Deep Purple
Strange Kind Of Woman Ver 2 (Guitar tab)

strange kind of woman

chords
Bm F#7+10 A E7+10
7 # 5 #
7 10 5 8
7 9 6 7
9 8 7 6
9 9 7 7
7 # 5 #

intro
Bm F#+10
-10b12-7-------------7----------------------------------------
---------10-7------7---10-9-7---------------------------------
--------------9b10------------10-9-7---9-7-------9-7----------
-------------------------------------9-----9-7-------9-7------
-----------------------------------------------9---------9----
-----------------------------------------------------------7s-

Bm
(1)there once was a woman a strange kind of woman
(2)i loved her everybody loved her
(3)she looked like a raver but i could never please her
(4)she finally said she loved me i wed her in a hurry

A E7+10 Bm
the kind that gets written down in history
she loved everyone and gave a good return
on wednesday mornings boy you cant go far
no more callers and i glowed with pride

Bm
her name was nancy her face was nothing fancy
i tried to take her i evn tried to break her
i couldnt get her but thing got the better she siad
im dreaming i feel like screaming

A E7+10 Bm
she left a trail of happiness and misery
she said i aint for taking wont you ever learn
saturday night from now on baby your my star
i won my woman just before she died

chorus
Bm A E7+10 Bm
------------------------------
------------------------------
------------------------------
---5--------------5-----------
-7---7--7-5-7---7---7--7-5-7--

i want you i need you i gota be near you

A E7+10 Bm
i spend my money as i took my turn

i want you i need you i gota be near you

Bm
----------------
----------------
-7----------7---
-7-9-7-9----7-9-
---9-7-9-7h9--9-
--------------7-
A E7+10 Bm
i got a strange kind of woman

bridge
G D A Bm G D A Bm A E
ohh ohh ohh ohh my soul i love you

OptimusPrime

Toegevoegd door OptimusPrime op zo 01 dec, 2002 9:26 am

Auteur: ?
Componist: ?
Uitgever: ?
Taal: Engels

Reacties

CommonCrawl [Bot]

Volg Muzikum