Deep Purple

Deep Purple
Woman From Tokyo (Guitar tab)

woman from tokyo

G G/F
3 3
3 1
0 0
0 2
2 #
3 3

intro
riff 1 _________ _______
E )1 )2 4x
----------------- --------- ------- ------------- -3-------
----------------- --------- ------- ------------- ---5p3---
---2-2p1---2-1--- --------- ------- ------------- -------4-
---2-2-----2-2-2- -------0- -3-4-5- ---2-0h2---2- ---------
---------------2- ---0h2--- -3-4-5- ------------- ---------
-0-------0------- -0------- ------- -0-------0--- ---------

G G/F G G/F G G/F
(1)flying to the rising sun faces smile at everyone she is a whole new tradition
(2)talk about her like a queen dancing in an eastern dream she makes me feel like a river
(3)rising from the neon gloom shining like a crazy moon turns me on like a fire

G7
i feel it in my heart
that carries me away
i get high

chorus

E
(riff 1)
my woman from tokyo she makes me see
my woman from tokyo shes so good to me


-------12------------------- -------
-15b17----15---------------- -------
-------------14b16r14p12---- -------
-------------------------14- -------
---------------------------- -------
---------------------------- -0-1-2-

bridge
A Gm7
well im at home and i just dont belong

G G/F
so far away from the garden we love
she is what move in the soul like a dove
ooh ooh ooh ooh
soon i shall see just how black was my night
when where alone in the city of light
C C7
ooh

G D6 G/B C G/D
-3-----3-----5-----5-----7-----7-----8-----8-----10-----10-----
---3-----3-----3-----3-----5-----5-----5-----5------8------8---
-----0-----0-----0-----0-----0-----0-----0-----0------0------0-
---------------------------------------------------------------
---------------------------------------------------------------
---------------------------------------------------------------

C D6 G
-12-----12-----14------14------15---------15-15-15-
----8------8------10------10------12---12----------
------0------0-------0-------0-------0-------------
---------------------------------------------------
---------------------------------------------------
---------------------------------------------------

piano sol0
_______
3x)B A E B A C

OptimusPrime

Toegevoegd door OptimusPrime op zo 01 dec, 2002 9:26 am

Auteur: Ian Gillan, Ian Paice, Jon Lord, Ritchie Blackmore, Roger Glover, Deep Purple
Componist: ?
Uitgever: EMI Records Ltd
Uitgegeven in: 2013
Taal: Deens

Reacties

CommonCrawl [Bot]

Volg Muzikum