Deep Purple

Deep Purple
Black Knight (Guitar tab)

Song:Black Knight
Artist:Deep Purple
Tabbed by:John Smith

Intro (this is done on bass)
------------------------------------------------------
------------------------------------------------------
------------------------------------------------------
------------------------------------------------------
-7-7-7-7-7-7--5-5-5-5-5-5-----------------------------
---------------------------7-7-7-7-7-7--3-3-3-3-3-3---

Main Riff
------------------------------------------------------
------------------------------------------------------
------------------------------------------------------
----5--------------5---7--5---5----7------------------
-/7---7-5----5--7----7------7---7-----7---------------

OptimusPrime

Toegevoegd door OptimusPrime op zo 01 dec, 2002 9:26 am

Auteur: ?
Componist: ?
Uitgever: ?
Taal: Engels

Reacties

CommonCrawl [Bot]

Volg Muzikum