Deep Purple

Deep Purple
Mistreated (Guitar chord)

Date: Sun, 24 Mar 2002 15:46:20 +0100
From: =?iso-8859-2?Q?Zelma=F1ski?=
Subject: d/deep_purple/mistreated.crd

Mistreated


Blackmore/Coverdale
Guitar



F#m E/G# D/A Hm F#m E/G#
E||---2----2----2----2----|--2----2----2----2----|--2----2----2----2----|
B||---2----2----5----5----|--3----3----3----3----|--2----2----5----5----|
G||*--2----2----4----4----|--2----2----4----4----|--2----2----4----4----|
D||*--4----4----2----2----|--4----4----4----4----|--4----4----2----2----|
A||---4----4----2----2----|--0----0----2----2----|--4----4----2----2----|
E||---2----2----4----4----|------------2----2----|--2----2----4----4----|


D/A Hm C# C# 2x
--2----2----2----2----|--4----4----4----4----|--4----4----4----4-----||
--3----3----3----3----|--6----6----6----6----|--6----6----6----6-----||
--2----2----4----4----|--6----6----6----6----|--6----6----6----6----*||
--4----4----4----4----|--6----6----6----6----|--6----6----6----6----*||
--0----0----2----2----|--4----4----4----4----|--4----4----4----4-----||
------------2----2----|--4----4----4----4----|--4----4----4----4-----||

OptimusPrime

Toegevoegd door OptimusPrime op zo 26 mei, 2002 2:09 am

Auteur: David Coverdale, Ritchie Blackmore
Componist: ?
Uitgever: Parlophone Records Ltd.
Uitgegeven in: 2013
Taal: Engels

Reacties

CommonCrawl [Bot]

Volg Muzikum