Deep Purple

Deep Purple
Soldier Of Fortune (Guitar tab)

Date: Fri, 27 Apr 2001 05:12:06 -0400
From: "saad-aldin al-saidi"
Subject: d/deep_purple/soldier_of_fortune.tab

Artist: Deep perple
Song: Soldier Of Fortune
Tabbed by: GuitaR-HerO (rour18@hotmail.com)

Symbols :
----------
h - Hammer on
p - Pull off
b - Bend up
r - Release bend
s - Slide to note


Intro:Rythm

E|--3----------------1-----------------3--------------------------|
B|----5----------------3-----------------5------------------------|
G|------5----------------3-----------------5----------------------|
D|--------3-------3--------2-------2---------3-------3------------|
A|----------3---3------------1---1-------------3---3--------------|
E|------------3----------------1-----------------3----------------|


E|--3--------------------------------------------------------------|
B|----5------------------------------------------------------------|
G|------5----------------------------------------------------------|
D|--------3--------------------------------------------------------|
A|----------3------------------------------------------------------|
E|-----------------------------------------------------------------|

Intro:Solo

E|--3--------------------------------------------------------------|
B|----5------------------------------------------------------------|
G|-------5---------------------------------------------------------|
D|----------3---------------------------------------------s--------|
A|-------------3------------s--------------h--p---11-10-8---10-----|
E|----------------3---5---6---10---------10-11-10------------------|

E|-----------------------------------------------------------------|
B|--13----------------s--------------------------------------------|
G|--14--15--14--12--9---12----15--14--12---------------------------|
D|--15-------------------------------------------------------------|
A|-----------------------------------------------------------------|
E|-----------------------------------------------------------------|


Solo Rythm:

E|3-----------------------------------3----------------------------|
B|--5---------------3-------------------5--------------3-----------|
G|-----------------------------------------------------------------|
D|------3-------3------0---------0---------3-------3-----0-------0-|
A|--------3---3----------1-----1-------------3---3---------1---1---|
E|----------3---------------0------------------3-------------0-----|

E|3---------------------------------------------3------------------|
B|--5---------------1--------------3--------------5----------------|
G|--------------------1--------------------------------------------|
D|------3-------3-------3-------3----0-------0-------3-------3-----|
A|--------3---3-----------3---3--------1---1-----------3---3-------|
E|----------3---------------3------------0---------------3---------|


Solo :
s b r b
E|------------------------s--------b--r--b-----\11-13-13-14-13-14--|
B|--s--------b--r--b-------\8-11-11-13-11-13-----------------------|
G|---\7-10-10-12-10-12---------------------------------------------|
D|-----------------------------------------------------------------|
A|-----------------------------------------------------------------|
E|-----------------------------------------------------------------|

b r b
E|----b---r----------10-13-13-14-13-14---b--r-----b--r--r----------|
B| 14--15---14-12-13-------------------14-15-12-13-14-13-14--------|
G|-----------------------------------------------------------------|
D|-----------------------------------------------------------------|
A|-----------------------------------------------------------------|
E|-----------------------------------------------------------------|


E|---b--r----------------------------------------------------------|
B|-14-15-14-12-13---b--r--b--r-------------------------------------|
G|----------------14-15-14-15-14-12--------------------------------|
D|-----------------------------------------------------------------|
A|-----------------------------------------------------------------|
E|-----------------------------------------------------------------|



_____________________________________________________________________
| |
| Translated By GuitaR-herO |
|If There Is Any Comments Or Correction Please Feel Free To E-mail me |
| On Rour18@hotmail.com

OptimusPrime

Toegevoegd door OptimusPrime op di 18 dec, 2001 12:56 pm

Auteur: David Coverdale, Ritchie Blackmore
Componist: ?
Uitgever: Parlophone Records Ltd.
Uitgegeven in: 2013
Taal: Engels

Reacties

CommonCrawl [Bot]

Volg Muzikum