Deep Purple

Deep Purple
Smoke On The Water Intro (Guitar tab)

Date: Thu, 28 Jun 2001 20:15:35 -0400
From: Skatrix247@aol.com
Subject: d/deep_purple/smoke_on_the_water_intro.tab

Intro: Smoke on the Water (Blackmore, Gillan, Glover, Lord, Paice)
Artist: Deep Purple
Album: Machine Head
Release date: March, 1972
Running time: 6:18

Transcribed by: Ted Parshall
If you have any comments or suggestions please contact me at
Skatrix247@aol.com

This is the intro to Smoke on the Water by Deep Purple, I picked it up myself
so I don't know or am not sure if it is accurate or not. I'm sure you can
produce various sound changes by moving it up and down the bars. It's a
fairly, actually really simple intro. I'm not really sure about the spacing
either. Here it is...

e|-------------|---------------|-------------|-------------
B|-------------|---------------|-------------|-------------
G|---0---3---5-|---0---3---6-5-|---0---3---5-|---3--0-0----
D|---0---3---5-|---0---3---6-5-|---0---3---5-|---3--0-0----
A|-------------|---------------|-------------|-------------
E|-------------|---------------|-------------|-------------
let ring

That's it, like I said before I'm not sure if it's accurate, and again like I
said before, contact me (Skatrix247@aol.com) if you have comments and
suggestions. Thanx

OptimusPrime

Toegevoegd door OptimusPrime op di 18 dec, 2001 12:56 pm

Auteur: ?
Componist: ?
Uitgever: ?
Taal: Engels

Reacties

2 berichten

CommonCrawl [Bot]
Thran
vr 06 feb, 2004 2:38 pm
it's not how they play it, but it's correct, steve morse/richie blackmore play it like:

e|---------------------------------|
B|---------------------------------|
G|---3-5----3-6-5----3-5-3---------|
D|-5-3-5--5-3-6-5--5-3-5-3-5-------|
A|-5------5--------5-------5-------|
E|---------------------------------|

it sounds the same, but this is just a bit else;)
Anonymous
vr 16 mei, 2003 7:58 am
None of you know what in the sh*t you are talking about. All the tabs i have looked for on this song are wrong
2 berichten • Pagina 1 van 1

Volg Muzikum