Eric Clapton

Eric Clapton
Tears In Heaven Fills (Guitar tab)

Some Fills From Tears in Heaven
By Eric Clapton
by Brian S


Fill 1 : (guitar 2 fill)
e------------------------/7-5~-------------------------
b------------------------------/7--5~-----5~~---3~-----
g--------------------------------------6--------2~-----
d------------------------------------------------------
a------------------------------------------------------
e------------------------------------------------------
would you know my name? if i saw you in heaven

e------------------------------------------------------
b------------------------7-9-10~~-9--7-----------------
g---------------------------------------9--------------
d------------------------------------------------------
a------------------------------------------------------
e------------------------------------------------------
would it be the same? if i saw you in heaven


guitar 2 does this before some verses :

e------------------------------------------------------
b-----------2-3-2--------------------------------------
g-------2-4-------4------------------------------------
d--2~h4------------------------------------------------
a------------------------------------------------------
e------------------------------------------------------




Tears in Heaven Solo :
*guitar 2 plays this*
e-------------------------|-----------------------------
b-----0-----2-----3-------|--14--------17-17-14~~~~~----
g-----1-----2-----4-------|-----14~~--------------------
d-------------------------|-----------------------------
a-------------------------|-----------------------------
e--0------0----0------0~~~|-----------------------------
^^^^^^^^
----------------guitar 2 plays
above chords
e-------------------------^^^^-------------------------
b-15-15-14-12----14-12~~-------14------(17)-19--14~~~~-
g-------------14------------------14~~-----------------
d------------------------------------------------------
a------------------------------------------------------
e------------------------------------------------------

e------------------------------------------------------
b--15-15-14-12----14-12~~~-----0----2-----4------------
g--------------14--------------1----2-----3------------
d------------------------------------------------------
a------------------------------------------------------
e---------------------------0-----0----0-----0-into-F#m chorus chord

OptimusPrime

Toegevoegd door OptimusPrime op zo 30 okt, 2005 9:26 am

Auteur: ?
Componist: ?
Uitgever: ?
Taal: Engels

Reacties

CommonCrawl [Bot]

Volg Muzikum