Eric Clapton
Layla Ver 3 (Guitar tab)

Song : Layla
Artist : Eric Clapton
Tabbed By : Martin Hutchinson (My Real Name!) mdh130@hotmail.com

___________________________
| KEY:- |
| h = Hammer On |
| p = Pull Off |
| S = Slide |
~~~~~~~~~~~~~~~~~~~~~~~~~~~
INTRO:
~~~~~~
E |-------------------------------------------|
B |-------------------------------------------|
G |-----------------S---------------S---------|
D |-----0h3p0---0--5-3--2---2h3--2h3-5--------|
A |-0h3-------3----3-1--0---0h1--0h1-3--------|
E |-----------------------3-------------------|

RIFF 1:
~~~~~~~
E |-------------------------------------------|
B |---------------------S------S--------------|
G |------7h10p7----7--10-12--10-9--9----7-----|
D |-7h10--------10-------------------10-------|
A |-------------------------------------------|
E |-------------------------------------------|

RIFF 2:
~~~~~~~
E |-------------------------------------------|
B |---------------------S------S--------------|
G |------7h10p7----7--12-14--12-9--9----7-----|
D |-7h10--------10-------------------10-------|
A |-------------------------------------------|
E |-------------------------------------------|

ORDER:
~~~~~~
INTRO (Twice)
Riff 1, Riff 2, Riff 1, Riff 2

Copyrights
Auteur: ?
Componist: ?
Uitgever: ?

Reacties

CommonCrawl [Bot]

Volg Muzikum