Eric Clapton
I Get Lost (Guitar chord)

Date: Sat, 30 Sep 2000 18:36:14 -0400
From: "John A. Kovalsky"
Subject: c/clapton_eric/i_get_lost.crd

(I) Get Lost
Eric Clapton

This is the main riff in Clapton's (I) Get Lost from the soundtrack to
"The Story of Us" and the "Clapton Chronicles."

Intro riff �A' (2x)-

F#m E6
Bm7
|--------------------------------------------------------------2--------
|------------2------------------------2---------------------------3-----
|----------------2-----------------------1---------------------------2--
|--------4----------4------------2---------2-------------4-------------2
|----4------------------------2-----------------------2-----------------
|-----------------------------------------------------------------------

Esus4 (E) Esus4 E
|--------------------------------------------------|
|--------0-----------------0----------------------|
|--------2----------(1)----2--------------1------|
|--------2----------(2)----2--------------2------|
|-------------------(2)-------------------2------|
|--------------------------------------------------|


Intro riff �B' (1x)-
|-----------------------------------------------------------------------
|---------7--5/\/\-----7-------5----3/\/\/\/\/\------/3�2�0-----2-------
|----/6-------------------6/\/\--------------------------------2-----2--
|----------------------------------------------------------------------4
|-----------------------------------------------------------------------
|-----------------------------------------------------------------------

|-----------------------------------------------------------------------
|----------7�5----7/9/\/\--10�7/\/\/\/\-----------/3�2�0----2--5--2/\/\/
|------/6--------------------------------------------------------2------
|-----------------------------------------------------------------------
|-----------------------------------------------------------------------
|-----------------------------------------------------------------------






Verse chords
F#m E6 Bm7 E
F#m E6 Bm7 Esus4 (E)
Esus4 E

Chorus chords
Am F D G E
Am
Am F D G E

repeat intro riff B

Bridge chords
F E* E
A Asus4 F#sus4 F#
F E* E
A Asus4 A F



Chord formations

A 0 0 2 2 2 0 Asus4 0 0 2 2 3 0
Am 0 0 2 2 1 0 Bm7 x 2 4 2 3 2
D x 0 0 2 3 2 E 0 2 2 1 0 0
E* 0 2 2 2 0 0 E6 0 2 2 1 2 0
Esus4 0 0 2 2 0 0 F 0 3 3 2 1 1
F# 2 4 4 3 2 2 F#sus4 2 2 4 4 2 2
F#m 2 4 4 2 2 2 G 3 2 0 0 0 3


Although the version on the "Chronicles" is a sort of dance mix, there
is an all acoustic version on the soundtrack with nothing but Clapton
and his Martin. The chords were taken from Mr. Stanley M. Klemme.
Thank you Stanley. Enjoy.
Mike Kovalsky

Copyrights
Auteur: ?
Componist: ?
Uitgever: ?

Reacties

CommonCrawl [Bot]

Volg Muzikum