Eric Clapton

Eric Clapton
Sun Shine Of Your Love Ver 2 (Bass tab)

This is the best clapton bass line.Standard tuning.
E-----------------------------------------------------------------------------------------
A--7-7--5-7---------------7-7--5-7--------------------------------------------------------
D-----------7-6-5------------------7-6-5--------------------------------------------------
G-----------------5--8--5----------------5--8--5------------------------------------------
Then up one string 2 times.
Then back.
Then:
E------------------------------------------------------------------------------------------
A-------5-5-5--------------5-5-5--------------5-5-5----------------------------------------
D-7-7-7-------5-5-5--7-7-7-------5-5-5--7-7-7-------5-5-5---7--7--7--7--7-7-7-7-7-7-7-7----
G------------------------------------------------------------------------------------------

OptimusPrime

Toegevoegd door OptimusPrime op zo 30 okt, 2005 9:26 am

Auteur: ?
Componist: ?
Uitgever: ?
Taal: Engels

Reacties

CommonCrawl [Bot]

Volg Muzikum