Eric Clapton
Lay Down Sally (Bass tab)

Date: Wed, 30 Oct 2002 22:02:33 +0100 (CET)
From: Jan Bj�rklund
Subject: c/clapton_eric/lay_down_sally.btab

clapton_eric lay_down_sally.btab

Basstab by Jan Bjorklund, Finland;
jani_bjorklund@yahoo.se
You are welcome to request for basstabs!
Bienvenidos a pedirme transcripciones para el bajo!
Fingering and positions as suggested by TablEdit.

TablEdited by Jan Bjorklund for Ron
Tuning : E A D G Time Signature: 4/4

| tempo 96| | | | | |
|--------------------------------|--------------------------------|
|7---------------7-------5---4---|7-----------5---7-------5---4---|
|--------7-----7-----------------|--------7-----------------------|
|--------------------------------|--------------------------------|

| | | | | | | |
|--------------------------------|--------------------------------|
|7-----------5---7-------5---4---|7-----------5---7-------5---4---|
|--------7-----------------------|--------7-----------------------|
|--------------------------------|--------------------------------|

| | | | | | | |
|--------------------------------|--------------------------------|
|------------5---7---------------|7---------------7---------------|
|--------7---------------7-------|--------7---------------7---4---|
|5-------------------------------|--------------------------------|

| | | | | | | |
|--------------------------------|--------------------------------|
|------------------------4---4---|--------------------------------|
|5---------------5-------------7-|--------7-------------------7-4-|
|--------5-----------------------|5---------------5---------------|

| | | | | | | |
|--------------------------------|--------------------------------|
|--------------------------------|--------------------------------|
|--------7-----------------------|5---------------5-----5-5---6---|
|5---------------5-------7---9---|--------5-----------------------|

| | | | | | | |
|--------------------------------|--------------------------------|
|----------------------------6---|7---------------7---------------|
|7---------------7-----7-9-------|--------7-----------------------|
|--------7-----------------------|--------------------5---7---9---|

| | | | | | | |
|--------------------------------|--------------------------------|
|--------------------------------|--------------------------------|
|5---------------5-5-4---5---6---|7---------------7-------7-------|
|--------5-----5-----------------|--------7-----7-----9---------0-|

| | | | | | | |
|--------------------------------|--------------------------------|
|----7-----------7-7-------------|7---------------7---------------|
|--------7-----7-----9---7---9---|--------7-----7---------7---7---|
|5-------------------------------|--------------------------------|

| | | | | | | |
|--------------------------------|--------------------------------|
|--------------------------------|--------------------------------|
|5---------------5-5-4---5---6---|7---------------7-7-6---7-----7-|
|--------5-----5-----------------|--------7-----7-----------------|

| | | | | | | |
|--------------------------------|--------------------------------|
|7---7-----------7-7-------------|7---------------7-------5---4---|
|--------7-----7-----9---7---9---|--------7-----7-----------------|
|--------------------------------|--------------------------------|

| | | | | | | |
|--------------------------------|--------------------------------|
|7---------------7---------------|7---------------7-----7---------|
|--------9---7-----------10--9---|--------9---7-----------10--9---|
|--------------------------------|--------------------------------|

| | | | | | | |
|--------------------------------|--------------------------------|
|7---------------7-----7---------|------------5---7---------------|
|--------9---7-----------10--9---|--------7---------------7-------|
|--------------------------------|5-------------------------------|

| | | | | | | |
|--------------------------------|--------------------------------|
|7-----------5---7-------4-------|------------------------4-------|
|--------7-------------------7---|5---------------5-----5-----7---|
|--------------------------------|--------5-----------------------|

| | | | | | | |
|--------------------------------|--------------------------------|
|--------4-------7-------4-------|--------4-------7---------------|
|------------7---------------7---|------------7---------------4---|
|5-------------------------------|5-------------------5---7-------|

| | | | | | | |
|--------------------------------|--------------------------------|
|--------------------------------|--------------------4---5---6---|
|5---------------5-5-4---5---6---|7---------------7-7-------------|
|--------5-----5-----------------|--------7-----7-----------------|

| | | | | | | |
|--------------------------------|--------------------------------|
|7---------------7---------------|--------------------------------|
|--------7-------------------4---|5---------------5-------5---6---|
|------------------------5-------|--------5-----5-----5-----------|

| | | | | | | |
|--------------------------------|--------------------------------|
|--------------------------------|----------------7-7-4-------4---|
|7---------------7-7-5---7-------|--------7-----7---------7-------|
|--------7-----7---------------4-|5---5---------------------------|

| | | | | | | |
|--------------------------------|--------------------------------|
|7---------------7-------4---4---|--------------------------------|
|--------7-----7---------------7-|5---------------5-5-4---5---6---|
|--------------------------------|--------5-----5-----------------|

| | | | | | | |
|--------------------------------|--------------------------------|
|--------------------------------|----7-------5---7-7-4-----------|
|7---------------7---5---7-------|----------7-------------7---4---|
|--------7-----7-----------------|5-------------------------------|

| | | | | | | |
|--------------------------------|--------------------------------|
|--------4-------7-------5---4---|--------4-------7-------5---4---|
|------------7---------7---------|------------7---------7---------|
|5-------------------------------|5-------------------------------|

| | | | | | | |
|--------------------------------|--------------------------------|
|--------4-------7-------5---4---|--------4-------7-------4h--4---|
|------------7---------7---------|------------7---------7---------|
|5-------------------------------|5-------------------------------|

| | | | | | | |
|--------------------------------|--------------------------------|
|--------4-------7-------5---4---|--------4-------7-------5---4---|
|------------7-------------------|------------7---------7---------|
|5-------------------------------|5-------------------------------|

| | | | | | | |
|--------------------------------|--------------------------------|
|--------4-------7-------5---4---|--------4-------7-------5---4---|
|------------7---------7---------|------------7---------7---------|
|5-------------------------------|5-------------------------------|

| | | | | | | |
|--------------------------------|--------------------------------|
|--------4-------7-------5---4---|--------4-------7-------5---4---|
|------------7---------7---------|------------7---------7---------|
|5-------------------------------|5-------------------------------|

| | | | | | | |
|--------------------------------|--------------------------------|
|--------4-------7-------5---4---|--------4-------7-------5---4---|
|------------7---------7---------|------------7---------7---------|
|5-------------------------------|5-------------------------------|

| | | | | | | |
|--------------------------------|--------------------------------|
|--------4-------7-------5---4---|--------4-------7-------5---7---|
|------------7-------------------|------------7---------7---------|
|5-------------------------------|5-------------------------------|

| | | | | | | |
|--------------------------------|--------------------------------|
|--------4-------7-------5---7---|--------4-------7-------5---7---|
|------------7---------7---------|------------7---------7---------|
|5-------------------------------|5-------------------------------|

| | | | | | | |
|--------------------------------|--------------------------------|
|--------4-------7-------5---7---|--------4-------7---------------|
|------------7---------7---------|------------7---------------4---|
|5-------------------------------|5-------------------5---7-------|

| | | | | | | |
|--------------------------------|--------------------------------|
|------------------------4-------|----------------7-------4-------|
|5---------------5-----------7---|--------7-----7-------------7---|
|--------5-----5-----------------|5-------------------------------|

| | | | | | | |
|--------------------------------|--------------------------------|
|----------------7---------------|----------------------------4---|
|--------7-----7-------------4---|5---------------5-------5-----7-|
|5-------------------5---7-------|--------5-----5-------5---------|

| | | | | | | |
|--------------------------------|--------------------------------|
|--------------------4---5---6---|7---------------7---------------|
|7---------------7-7-------------|--------7-----7-------------4---|
|--------7-----7-----------------|--------------------5---7-------|

| | | | | | | |
|--------------------------------|--------------------------------|
|--------------------------------|--------------------------------|
|5---------------5-------5---6---|7---------------7-7-----7---9---|
|--------5-----5-----------------|--------7-----7-----9-----------|

| | | | | | | |
|--------------------------------|--------------------------------|
|----7-----------7-7-4-----------|----------------7---------------|
|--------------7---------7---4---|--------7---------------7---4---|
|5-------------------------------|5-------------5-----------------|

| | | | | | | |
|--------------------------------|--------------------------------|
|--------------------------------|--------------------------------|
|5---------------5-5-4---5---6---|7---------------7---5---7---7---|
|--------5-----5-----------------|--------7-----7-----------------|

| | | | | | | |
|--------------------------------|--------------------------------|
|----7-------4---7-7-4-------4---|7---------------7-------4-------|
|------------------------7-------|--------7-----7-------------7---|
|5-------------------------------|--------------------------------|

| | | | | | | |
|--------------------------------|--------------------------------|
|--------------------------------|--------------------------------|
|5---------------5-------5---6---|7---------------7-7-5---7---7---|
|--------5-----5-------5---------|--------7-----7-----------------|

| | | | | | | |
|--------------------------------|--------------------------------|
|----7-----------7---4-------4---|7---------------7---------------|
|------------------------7-------|--------7---7---------------4---|
|5-----------5-------------------|--------------------5---7-------|

| | | | | | | |
|--------------------------------|--------------------------------|
|--------------------------------|--------------------------------|
|5---------------5-------5---6---|7---------------7-7-6---7---7---|
|--------5-----5-------5---------|--------7-----7-----------------|

| | | | | | | |
|--------------------------------|--------------------------------|
|----7-----------7---------------|----------------7---------------|
|--------7---9-------9---7-------|--------7-------------7-9---7---|
|5-------------------------9-7---|5-------------5-----------------|

| | | | | | | |
|--------------------------------|--------------------------------|
|----------------7---------------|--------4-------7---------------|
|--------7---------------9---7---|------------7---------7-9---7---|
|5-------------5-----------------|5-------------------------------|

| | | | | | | |
|--------------------------------|--------------------------------|
|--------4-------7-------5---4---|--------4-------7---------------|
|------------7-------------------|------------7-----------7-------|
|5-------------------------------|5-------------------------------|

| | | | | | | |
|--------------------------------|--------------------------------|
|7---------------7---7-----------|7---------------7-------5---4---|
|--------7---------------7-------|--------7-----------------------|
|--------------------------------|-----------------fading......---|

Transcribe! 5.2 transcription http://www.seventhstring.demon.co.uk/
Created with TablEdit http://www.tabledit.com/

Copyrights
Auteur: ?
Componist: ?
Uitgever: ?

Reacties

CommonCrawl [Bot]

Volg Muzikum