Eric Clapton
Mean Old World ( Guitar 2 ) (Guitar tab)

Mean Old World


Eric Clapton
Guitar II




D||------------------|------------------|-------------------|
B||------------------|------------------|-------------------|
G||------------------|------------------|-------------------|
D||------------------|------------------|-------------------|
G||------------------|------------------|-------------------|
D||------------------|------------------|----------------3/-|



-------------------------|----------------------|--------------------------|
-------------------------|----------------------|-----------------------3/-|
-------------------------|----------5-----------|-----------------------3/-|
--0----3--3--5--3--------|--0----3--------------|--0-----2--0--0-----2--3/-|
--0----------------5--3--|--0-------------------|--0--0--0--0--0--0--0-----|
-------------------------|-------------------3/-|--------------------------|



-------------------------|---------------------------|------------------------|
--5~---5/----------------|---------------------------|------------------x--3/-|
--5~---5/-0--5--0--0--0--|---------------------------|---------------0--x--3/-|
--5~---5/-0--5--0--0--0--|-----0--3-0-3--5--3--------|--0------------0--x--3/-|
-------------------------|--0------------------5h-3--|--0--0--7------0--x-----|
-------------------------|---------------------------|------------------------|



-------------------------|-------------------------|---------------------------|
--5----5-----5-----------|--5----5-----5-----------|---------------------------|
--5----5--0--5--0--0--0/-|--5----5--0--5--0--0--0--|--0------------------------|
--5----5--0--5--0--0--0/-|--5----5--0--5--0--0--0--|--0--0--3-0-3--5--3--------|
----------------0--0--0/-|----------------0--0--0--|--0------------------5--3--|
-------------------------|-------------------------|---------------------------|



-----------------------|-----0------------------|-------------------------|
-----------------------|--1-------1----------3/-|--5----5-----------------|
--0----3--0----0--x----|--2-------2----------3/-|--5----5-----3--0--0--0--|
--0-------0----0--x----|--0----------3--0----3/-|--5----5--5--3--0--0--0--|
--0-------0----0--x----|------------------------|----------5-----0--0--0--|
-----------------------|------------------------|-------------------------|



---------------------------|------------------------|--------------------------|
---------------------------|---------------0--x--0--|-----------------------3/-|
---------------------------|---------------0--x--0--|-----------------------3/-|
--0--0--3-0-3--5--3--------|-------3--5----0--x--0--|--0-----2--0--0-----2--3/-|
--0------------------5--3--|--0---------------------|--0--0--0--0--0--0--0-----|
---------------------------|------------------------|--------------------------|



-------------------------|---------------------------|------------------------|
--5~---5/----------------|---------------------------|------------------x--3/-|
--5~---5/-0--5--0--0--0--|---------------------------|---------------0--x--3/-|
--5~---5/-0--5--0--0--0--|-----0--3-0-3--5--3--------|--0------------0--x--3/-|
-------------------------|--0------------------5h-3--|--0--0--7------0--x-----|
-------------------------|---------------------------|------------------------|



-------------------------|-------------------------|---------------------------|
--5----5-----5-----------|--5----5-----5-----------|---------------------------|
--5----5--0--5--0--0--0/-|--5----5--0--5--0--0--0--|--0------------------------|
--5----5--0--5--0--0--0/-|--5----5--0--5--0--0--0--|--0--0--3-0-3--5--3--------|
----------------0--0--0/-|----------------0--0--0--|--0------------------5--3--|
-------------------------|-------------------------|---------------------------|



-----------------------|-----0------------------|-------------------------|
-----------------------|--1-------1----------3/-|--5----5-----------------|
--0----3--0----0--x----|--2-------2----------3/-|--5----5-----3--0--0--0--|
--0-------0----0--x----|--0----------3--0----3/-|--5----5--5--3--0--0--0--|
--0-------0----0--x----|------------------------|----------5-----0--0--0--|
-----------------------|------------------------|-------------------------|



---------------------------|------------------------|--------------------------|
---------------------------|---------------0--x--0--|-----------------------3/-|
---------------------------|---------------0--x--0--|-----------------------3/-|
--0--0--3-0-3--5--3--------|-------3--5----0--x--0--|--0-----2-----0-----2--3/-|
--0------------------5--3--|--0---------------------|--0--0--3--3--3--3--3-----|
---------------------------|------------------------|--------------------------|



-------------------------|--------------------------|-------------------------|
--5----5-----------------|--------------------------|----------------0--x--3/-|
--5----5--0--3--0/-3--0--|--------------------------|-----------0----0--x--3/-|
--5----5--0--3--0/-3--0--|----0--3-0-3--5--3--------|--0-----0-------0--x--3/-|
-------------------------|--------------------5--3--|--0--0-------------x-----|
-------------------------|--------------------------|-------------------------|



-------------------------|-------------------------|---------------------------|
--5----------------------|-------------------------|---------------------------|
--5----5--0--3--0--x--0/-|--5----5--0--3--0/-3--0--|--0------------------------|
--5----5--0--3--0--x--0/-|--5----5--0--3--0/-3--0--|--0--0--3-0-3--5--3--------|
-------------------------|-------------------------|---------------------5--3--|
-------------------------|-------------------------|---------------------------|



------------------------|-----0----------0------|--------------------------|
---------------------0--|--1----------1---------|--5-----------5-----------|
----------0----0--x--0--|--2----------2---------|--5--0--0--0/-5--0/-3--0--|
-------3--0----0--x--0--|--4-------4--4---------|--5--0--0--0/-5--0/-3--0--|
--0---------------x--0--|-----------------------|-----------------0-----0--|
------------------------|-----------------------|--------------------------|



--------------------------|------------------------|--------------------------|
--------------------------|------------------------|--------------------------|
--------------------------|--0-------0----0--------|-----------------------3/-|
----0--3-0-3--5--5--------|--0----3--0----0--0-----|--0-----2-----0-----2--3/-|
--------------------5--5--|--0----0----------0--0--|--0--0--0--0--0--0--0--3/-|
--------------------------|------------------------|--------------------------|



-------------------------|---------------------------|------------------------|
--5----5/----------------|---------------------------|------------------x-----|
--5----5/-0--5--0--3--0--|--0------------------------|----------0-------x--0--|
--5----5/-0--5--0--3--0--|--0--0--3-0-3--5--3--------|--0----3-------0--x--0--|
-------------------------|---------------------3/-0--|--0---------------x--0--|
-------------------------|---------------------------|------------------------|



------------------------|------------------------|--------------------------|
------------------------|------------------------|--------------------------|
--5----x-----5/---x--0--|--5/-----0/-3/-0/-3/-0--|--------------------------|
--5----x--0--5/---x--0--|--5/-----0/-3/-0/-3/-0--|----0--3-0-3--5--3--------|
--5----x--0--5/---x--0--|--5/-----0-----------0--|--------------------3--0--|
------------------------|------------------------|--------------------------|



------------------------|-----0-------4---------|-------------------------|
------------------------|--1-------3-------3----|--5----5--0--5--0--5--0--|
----------------0--0----|--2----------5---------|--5----5--0--5--0--5--0--|
--0--0--5--5----0--0----|--0--------------------|--5----5--0--5--0--5--0--|
--0--0------------------|-----------------------|----------------------0--|
------------------------|-----------------------|-------------------------|



----------------------------|-------------------------|
--0-------------------------|----------------0--0--0--|
--0-------------------------|----------------0--0--0--|
--0-----3-0-3--5--3---------|--5--3----------0--0--0--|
--0--7---------------6/5----|--------7/-7-------0-----|
-------------------------3--|-------------------------|



--------------------------|-------------------------|
-----------------------3/-|--3~---3/----------------|
-----------------------3/-|--3~---3/-0--5--0--0--0--|
--0-----2--0--0-----2--3/-|--3~---3/-0--5--0--0--0--|
--0--0--0--0--0--0--0-----|----------0--5--0--0--0--|
--------------------------|-------------------------|



---------------------------|-------------------------|-------------------------|
---------------------------|----------------0--x--3/-|--5----5-----5-----------|
---------------------------|----------------0--x--3/-|--5----5--0--5--0--0--0--|
-----0--3-0-3--5--3--------|--0--0--0--5----0--x--3/-|--5----5--0--5--0--0--0--|
--0------------------5--3--|--0--0-------------x-----|----------------0--0--0--|
---------------------------|-------------------------|-------------------------|



-------------------------|---------------------------|-----------------------|
--5----5--0--5-----------|---------------------------|-----------------------|
--5----5--0--5--0--0--0--|--0------------------------|--0-------0----0--x----|
--5----5-----5--0--0--0--|--0--0--3-5-3--5--3--------|--0----3--0----0--x----|
----------------0--0--0--|--0------------------5--3--|--0-------0----0--x----|
-------------------------|---------------------------|-----------------------|



-----0------------------|-------------------------|---------------------------|
--1-------1----------3/-|--5----5-----------------|---------------------------|
--2-------2----------3/-|--5----5-----3-----------|---------------------------|
--0----------4--0----3/-|--5----5--5--3--0--0--0--|--0--0--3-0-3--5--3--------|
------------------------|----------5-----0--0--0--|--0------------------5--3--|
------------------------|-------------------------|---------------------------|



------------------------|--------------------------|--------------------------|
---------------0--x--0--|--------------------------|--------------------------|
---------------0--x--0--|--------------------------|--5--5--------3--0--3--0--|
-------3--5----0--x--0--|--0--0--2--0--0--0--2--0--|--5--5--3--0--3--0--3--0--|
--0---------------------|--0--0--0--0--0--0--0--0--|--5--5--3--0-----------0--|
------------------------|--------------------------|--------------------------|



-------------------------|--------------------------|-------------------------|
-------------------------|--8~-8~-8~-6/-------------|-------------------------|
--------------0/-3/-0----|--------------3/-0--x--3/-|--5----------------------|
----0--3-0-3-------------|--------------------x--3/-|--5----7--5--5--5--7--5--|
-------------------------|--------------------x--3/-|--5----5--5--5--5--5--5--|
-------------------------|--------------------------|-------------------------|



-------------------------|-------------------------|-------------------------|
--5----5-----------------|-------------------------|----------------------5/-|
--5----5--0--3--0--3--0--|--0----------------------|----------------------5/-|
--5----5--0--3--0--3--0--|--0--3--3--5----3--------|-------0-3/-5----0----5/-|
-------------------------|-----3-------------5-----|-----3----------------5/-|
-------------------------|----------------------3--|--5----------------------|



-------------------------|-------------------------|--------------------------|
--7----------------------|-------------------------|--------------------------|
--7--------0--7-------5--|--5/---5--0--3--0/-3--0--|--------------------------|
--7----3-0-------7-------|--5/---5--0--3--0/-3--0--|----0--3-0-3--3--5--------|
--7----------------------|----------------------0--|--------------------5--3--|
-------------------------|-------------------------|--------------------------|



------------------------|--------------------------|-------------------------|
------------------------|--------------------------|--5----5-----------------|
------------------0--0--|--------------------------|--5----5--0--3--0--3--0--|
--------3--5------0--0--|--0-----2--0--0-----2--0--|--5----5--0--3--0--3--0--|
--0--0------------0--0--|--0--0--0--0--0--0--0--0--|----------0-----------0--|
------------------------|--------------------------|-------------------------|



--------------------------|------------------0----|-------------------------|
--------------------------|------------------0----|--5/---5-----------------|
--------------------------|------------------0----|--5/---5--0--3--0--0--0--|
----0--3-0-3--5--3--------|--------3--5------0----|--5/---5--0--3--0--0--0--|
--------------------5--3--|--0-0-------------0----|-------5--0--3--0--0--0--|
--------------------------|-----------------------|-------------------------|



----------------------|------------------------|---------------0-------|
--5----5/---5/---5/---|------------------------|---------------0--0----|
--5----5/---5/---5/---|----------0-------------|----------0-------0----|
--5----5/---5/---5/---|----0--3-------3--------|-------3---------------|
----------------------|------------------5--3--|--0--------------------|
----------------------|------------------------|-----------------------|



-----------------------|------------------------|---------------------------|
--1----x--1----1--1----|--5----5/---------------|---------------------------|
--5----x--5----5--5----|--5----5/---3--0-----0--|--0------------------------|
--4----x--4----4--4----|--5----5/---3--0--3--0--|--0--0--3-0-3--5--3--------|
-----------------------|---------------------0--|--0------------------5--3--|
-----------------------|------------------------|---------------------------|



----------------------|------------------||
----------------------|------------------||
-----0-----0----------|------------------||
--0--0-----0----------|------------------||
--0--------0----------|------------------||
--------3-------------|------------------||

  • viking5

    Toegevoegd door

    viking5 op vr 15 apr, 2005 10:45 pm

  • <
Copyrights
Auteur: ?
Componist: ?
Uitgever: ?

Reacties

CommonCrawl [Bot]

Volg Muzikum