Eric Clapton
Mean Old World ( Guitar 1 ) (Guitar tab)

Mean Old World


Eric Clapton
Guitar I




D||---------------3-------|-----------------------|---------------------------|
B||-------------3---3/-8--|----7------------------|--8----8h6-----------------|
G||----------3/-----------|-------6/5-3-----------|-----------7--7/-3---------|
D||-----------------------|--------------5~-------|--------------------5-3-5--|
G||-----------------------|-----------------------|---------------------------|
D||-----------------------|-----------------------|---------------------------|



-------3---3---------------|--------------------------|--12--------------3/-|
----3----3----8--6---------|--8---6----8----0--0--10/-|--12--------------3/-|
--------------------6h5h3--|--------7-------0--0--10/-|--12--------------3/-|
---------------------------|-------------------0--10/-|--12--------------3/-|
---------------------------|-------------------0------|---------------------|
---------------------------|--------------------------|---------------------|



--5----------------|-------3---3--------------|----------------------3/-|
--5----------------|----3----3----8--6--------|--8---6----8----0--0--3/-|
--5----------------|--------------------5--3--|--------7-------0--0--3/-|
--5----------------|--------------------------|-------------------0--3/-|
-------------------|--------------------------|-------------------0-----|
-------------------|--------------------------|-------------------------|



--5--------------3/-|--5----------------|-------3---3--------------|
--5--------------3/-|--5----------------|----3----3----8--6--------|
--5--------------3/-|--5----------------|--------------------5--3--|
--5--------------3/-|--5----------------|--------------------------|
--------------------|-------------------|--------------------------|
--------------------|-------------------|--------------------------|



-------------------------|--------------------|-------------------|
--8---6----8----0--0--5/-|--7------------3/---|--5----------------|
--------7-------0--0--5/-|--7------------3/---|--5----------------|
-------------------0--5/-|--7------------3/---|--5----------------|
-------------------0-----|--------------------|-------------------|
-------------------------|--------------------|-------------------|



-------5---5--------------|--------------------------|--12--------------3/-|
----3----3----8--6--------|--8---6----8----0--0--10/-|--12--------------3/-|
--------------------5--3--|--------7-------0--0--10/-|--12--------------3/-|
--------------------------|----------------0--0--10/-|--12--------------3/-|
--------------------------|-------------------0------|---------------------|
--------------------------|--------------------------|---------------------|



--5----------------|-------3---3--------------|----------------------3/-|
--5----------------|----3----3----8--6--------|--8---6----8----0--0--3/-|
--5----------------|--------------------5--3--|--------7-------0--0--3/-|
--5----------------|--------------------------|-------------------0--3/-|
-------------------|--------------------------|-------------------0-----|
-------------------|--------------------------|-------------------------|



--5--------------3/-|--5----------------|-------3---3--------------|
--5--------------3/-|--5----------------|----3----3----8--6--------|
--5--------------3/-|--5----------------|--------------------5--3--|
--5--------------3/-|--5----------------|--------------------------|
--------------------|-------------------|--------------------------|
--------------------|-------------------|--------------------------|



-------------------------|--------------------|-------------------|
--8---6----8----0--0--5/-|--7------------3/---|--5----------------|
--------7-------0--0--5/-|--7------------3/---|--5----------------|
-------------------0--5/-|--7------------3/---|--5----------------|
-------------------0-----|--------------------|-------------------|
-------------------------|--------------------|-------------------|



-------5---5--------------|--------------------------|
----3----3----8--6--------|--8---6----8----0--0--10/-|
--------------------5--3--|--------7-------0--0--10/-|
--------------------------|----------------0--0--10/-|
--------------------------|-------------------0------|
--------------------------|--------------------------|



--12-12--12/12/-----------------|----8--8--5--------------|
--12------------12--12~---------|----8--8--5--5--4--------|
--------------------12~---12/---|-------------5--4--3--5--|
--------------------------------|-------------------------|
--------------------------------|-------------------------|
--------------------------------|-------------------------|



-------3---3--------------|----------------------1/-|--3-3-3--3--5--5----5/----|
----3----3----8--6--------|--8---6----8----0--x--1/-|-----------------------0--|
--------------------5--3--|--------7-------0--x-----|-----------------------0--|
--------------------------|-------------------x-----|--------------------------|
--------------------------|-------------------x-----|--------------------------|
--------------------------|-------------------------|--------------------------|



-------------------------|--------3---3--------------|------------------------|
----5----5--5/-----------|-----3----3----8--6--------|--8---6----8----0--0----|
---------------3--0h3h0--|--0------------------5--3--|--------7-------0--0----|
-------------------------|---------------------------|-------------------0----|
-------------------------|---------------------------|-------------------0----|
-------------------------|---------------------------|------------------------|



-----------12--12--------3/-|--8--8--8--8--------------|
--7--8--9-----------3-3--3/-|--8--8--8--8--6/-------8--|
----------------------------|-----------------5--3-----|
----------------------------|--------------------------|
----------------------------|--------------------------|
----------------------------|--------------------------|



-------3---3--------------|-------------------------|-------------------------|
----3----3----8--6--5--3--|--8---6----8----0--0-----|-------------------------|
--------------------------|--------7-------0--0-----|----------------------0/-|
--------------------------|----------------0--0--3--|--------3--5----5/----0/-|
--------------------------|-------------------0-----|--0--4-------------2--0/-|
--------------------------|-------------------------|-------------------------|



--------------------------|---------------------------|-------3----------------|
--------------------------|---------------------------|----3-----8----6--------|
--5-------0------0-----0--|--0------------------------|------------------5--0--|
--5----5--0------0-----0--|--0--5--5-5-5--5/-3--------|------------------------|
--5----5-----5/3----3-----|---------------------3/-0--|------------------------|
--------------------------|---------------------------|------------------------|



----------------------|-------------------------|--------------------------|
----------------------|-------------------------|--------------------------|
----------------------|-------x--0-----0-----0--|--------------5--3--------|
--5------3/-5------3--|--5----x--0--3--0--3--0--|----0--3-0-3--------5/-5/-|
--5---------5/--------|--5----x--0--3--0--3--0--|--------------------------|
----------------------|-------------------------|--------------------------|



--------------------------|--------------------------|
--------------------------|--------------------------|
-----3--------------------|--7~----------------------|
--5-----5/3-0--5/-5/---2/-|--7~---7---7--7~---7---7--|
-----------------------2/-|--7~-----7----7~-----7----|
--------------------------|--------------------------|



--------------------------|----------------------------|
--------------------------|----------------------------|
--5-----------------------|----------------------------|
--5----5---5--5--0--3--0--|--0-----3-0-3--5--3---------|
---------5----5--0--3--0--|--0/-7---------------6/5----|
--------------------------|-------------------------3--|



------------------------|--12--------------3/-|--5----------------|
--------------------10/-|--12--------------3/-|--5----------------|
--------------------10/-|--12--------------3/-|--5----------------|
--5--3--------------10/-|--12--------------3/-|--5----------------|
--------7/-7/-----------|---------------------|-------------------|
------------------------|---------------------|-------------------|



-------3---3--------------|-------------------------|--------------------|
----3----3----8--6--------|--8---6----8----0--0--3/-|--5/-------------3/-|
--------------------5--3--|--------7-------0--0--3/-|--5/-------------3/-|
--------------------------|-------------------0--3/-|--5/-------------3/-|
--------------------------|-------------------0-----|--------------------|
--------------------------|-------------------------|--------------------|



-------------------|-------3---3--------------|-------------------------|
--5----------------|----3----3----8--6--------|--8---6----8----0--0--5/-|
--5----------------|--------------------5--3--|--------7-------0--0--5/-|
--5----------------|--------------------------|-------------------0--5/-|
-------------------|--------------------------|-------------------0-----|
-------------------|--------------------------|-------------------------|



--------------------|-------------------|-------3---3--------------|
--7--------------3/-|--5----------------|----3----3----8--6--------|
--7--------------3/-|--5----------------|--------------------5--3--|
--7--------------3/-|--5----------------|--------------------------|
--------------------|-------------------|--------------------------|
--------------------|-------------------|--------------------------|



----------------------3/-|--8/--------------------|--------------------------|
--8---6----8----0--0--3/-|--8/--------------------|--------------------------|
--------7-------0--0-----|--------------0------3/-|--5--5--3--3--3--0--3--0--|
-------------------0-----|--------------0------3/-|--5--5--3--3--3--0--3--0--|
-------------------0-----|-----0--3--5------------|--------------------------|
-------------------------|------------------------|--------------------------|



------------------------|----------------------|----------------------|
------------------------|----------------------|----------------------|
------------------------|-------------------3/-|--5------3/-5------3/-|
----0--3--0----3--------|----0--3--5--------3/-|--5------3/-5------3/-|
------------------3--0--|----------------------|----------------------|
------------------------|----------------------|----------------------|



-------------------------|-------------------------|------------------|
-------------------------|-------------------8/----|------------------|
--5----5--0--3--0--3--0--|--0--------0-------------|------------------|
--5----5--0--3--0--3--0--|--0--0--3-------0-----8/-|------------------|
-------------------------|-------------------------|------------------|
-------------------------|-------------------------|------------------|



------------------|-------------------------|-------3---3--------------|
------------------|-------------------------|----3----3----8--6--------|
------------------|--5----5-----------------|--------------------5--3--|
------------------|-------5--0--3--0--3-----|--------------------------|
------------------|----------------------0--|--------------------------|
------------------|-------------------------|--------------------------|



----------------0--0--0--|--8--8--10--12/-----------|
--8---6----8----0--0--0--|----------------8----8/---|
--------7----------------|--------------------------|
-------------------------|--------------------------|
-------------------------|--------------------------|
-------------------------|--------------------------|



----15--15/-12-10-8~---------|-------3---3--------------|
-----------------------8--8--|----3----3----8--6--------|
-----------------------------|--------------------5--3--|
-----------------------------|--------------------------|
-----------------------------|--------------------------|
-----------------------------|--------------------------|



--------------------------|-------------------8--|------------------------|
--8---6----8----0--x--10/-|--5----5--5-----------|------8-----------------|
--------7-------0--x------|-------5--5-----------|--------7/--3--3--3-----|
-------------------x------|----------------------|---------------------3/-|
-------------------x------|----------------------|------------------------|
--------------------------|----------------------|------------------------|



--------3---3--------------|-------------------------|-------------------------|
-----3----3----8--6--------|--8---6----8----0--x--5/-|--7/---7-----------------|
---------------------5--3--|--------7-------0--x--5/-|--7/---7-----------------|
--5------------------------|-------------------x--5/-|--7/---7/-7/-7/-7/-7-----|
---------------------------|-------------------------|----------------------7--|
---------------------------|-------------------------|-------------------------|



---------------------------|--------3---3-------------|-----8--8--8----------|
---------------------------|-----3----3----8~---------|-----8--8--8----------|
--7/-7--3h-0--3/-3--0---0--|--0-----------------5--3--|----------------------|
--------------3/-3----4----|--------------------------|----------------------|
---------------------------|--------------------------|--0-------------------|
---------------------------|--------------------------|----------------------|



------------------||
------------------||
------------------||
------------------||
------------------||
------------------||

  • viking5

    Toegevoegd door

    viking5 op vr 15 apr, 2005 10:45 pm

  • <
Copyrights
Auteur: ?
Componist: ?
Uitgever: ?

Reacties

CommonCrawl [Bot]

Volg Muzikum