Eric Clapton
Classical Gas Ver 5 (Guitar tab)

eric clapton (mason williams) - classical gas

e|------------------------------------------------------------------------------|
B|-1-----1-----0--------0----------------0h1---0h1-----0-------0---------0------|
G|----2-------0--------0---2-0----2-----2----2--------0-------0--2-0-0h2------2-|
D|-------------------------------2-------------------------------------------2--|
A|-0----------------------------0------0------------------------------------0---|
E|-----------3-----2--0------------------------------3-----2-0------------------|

e|------------0-----------------|
B|------1---3-----3-1--3---1--0-|
G|---0-2---0----0---------------|
D|--0--------------------2------|
A|----0---2---3-----0-----------|
E|-3----------------------------|

e|----------------------------------------|
B|-0h1p0h1--1-0---------0----0------------|
G|--------2-------0--0---202---2---2--2---| x2
D|---------------0--0--0----------2--2--2-|
A|-0-------0-0-------------------0--0--0--|
E|--------------3--2--0-0---0-0-----------|

e|--------------------------------------------------0-------------------------|
B|-0h1p0h1--1-0---------0----0------0---01---1---3-----3-1-3--1-0h1-----------|
G|--------2-------0--0---202---2---2---0----2---0--0--0-------------2--0-22-0-|
D|---------------0--0--0----------2--------------------------2--0-------------|
A|-0-------0-0-------------------0---------0---2--2-3----0---------------00-0-|
E|--------------3--2--0-0---0-0-------3-----------------------------0--0------|

e|---------------------0---1---2---3---4h0-0-5-0-7-0-|
B|----0---01---1---3----1---1---1---3----------------|
G|---2---0----2---0--0---0---2---2---0---------------|
D|--2--------------------------0---------------------|
A|-0---------0---3--3--3---0-------------------------|
E|------3--------------------------3---0---0-0-0-0-0-|

e|-8-7-5---5----5---5---8-7-5---5-----5-----8-7-5---5----8-5--------|
B|-------8---7---7---5--------8---7-8--8--5-------8---7------8--5-8-|
G|--------------------5------------------5--------------------------|
D|-----------0----0---------------0-----0-------------0-------------|
A|-0------0-------------0------0------------0------0----------------|
E|------------------------------------------------------------------|

e|-------------------0--0--0--0--------0---------|
B|----3----5----1----3--3--3--3------3---3-----3-|
G|----4----5----2------------------2-------2--2--|
D|-------------------------------3-----------3---|
A|------3-3-------1-0--0--0--0--0----------------|
E|-3-3-------1-1---------------------------------|

e|---------------------------------------------------------------0----------------|
B|-0h1p0h1--1--3--1--0---0h1p0h1--1--0-------0h1p0h1--1--0--1--3--1-3--1--0---013-|
G|--------2--2--2--2--2---------2--2--2-2--0--------2--2--2--2--2--2-2--2--2-2----|
D|---------------------------------------2--2-------------------------2--2--2-----|
A|-0-------0--0--0--0--0-0-------0--0--0--0--0-------0--0--0--0--0--0--0--0--0----|
E|--------------------------------------------------------------------------------|

e|-0-0-----------1-0---0-0-----------1-0---0-0--------------------------|
B|--1-1--1-0---3----3---1-1--1-0---3----3---1-1--1-0-----------0----0---|
G|------0-----0-0----0------2-----0-0----0------0------0--0--0--202---2-|
D|----------------------------------------------------0--0--0-----------|
A|-3---3---------------0---0---------------3---3------------------------|
E|-----------3-3-3---------------3-3-3---------------3--2--0---0---0-0--|

e|---------0-1-2-3--4p0-0-5-0-7-0-|
B|-0-0-1-3--1-1-1-3---------------|
G|--2-0-2-0-----------------------|
D|-------------0------------------|
A|-0---0-2-3-0--------------------|
E|---3-----------3--0---0-0-0-0-0-|

e|-8-7-5---5----5---5---8-7-5---5-----5-----8-7-5---5----8-5--------|
B|-------8---7---7---5--------8---7-8--8--5-------8---7------8--5-8-|
G|--------------------5------------------5--------------------------|
D|-----------0----0---------------0-----0-------------0-------------|
A|-0------0-------------0------0------------0------0----------------|
E|------------------------------------------------------------------|

e|-------------------0--0--0--0--------0-----0-|
B|----3----5----1----3--3--3--3------3---3---3-|
G|----4----5----2------------------2-------2-2-|
D|-------------------------------3-----------3-|
A|------3-3-------1-0--0--0--0--0------------0-|
E|-3-3-------1-1-------------------------------|

e|----------------------------------------|
B|-0h1p0h1--1-0---------0----0------------|
G|--------2-------0--0---202---2---2--2---|
D|---------------0--0--0----------2--2--2-|
A|-0-------0-0-------------------0--0--0--|
E|--------------3--2--0-0---0-0-----------|

e|--------------------------------------------------0-------------------------|
B|-0h1p0h1--1-0---------0----0------0---01---1---3-----3-1-3--1-0h1-----------|
G|--------2-------0--0---202---2---2---0----2---0--0--0-------------2--0-22-0-|
D|---------------0--0--0----------2--------------------------2--0-------------|
A|-0-------0-0-------------------0---------0---2--2-3----0---------------00-0-|
E|--------------3--2--0-0---0-0-------3-----------------------------0--0------|

e|---------0-1-2-3--4p0-0-5-0-7-5----8-----------------------------0---------|
B|-0-0-1-3--1-1-1-3------------------8----7---3----5----1--------3---3-----3-|
G|--2-0-2-0-------------------------------7---4----5----2------2-------2--2--|
D|-------------0-----------------------0-0-------------------3-----------3---|
A|-0---0-2-3-0--------------------0-0-----------3-3-------1-0----------------|
E|---3-----------3--0---0-0-0-0------------3-3-------1-1---------------------|

e|--------0-------------------|
B|------3---3-----3-----2p0-2-|
G|----2-------2--2-2----2-----|
D|--4-----------4-------2-----|
A|-0-----------------0--0-----|
E|----------------------------|

  • dorvis

    Toegevoegd door

    dorvis op za 12 feb, 2005 12:24 am

  • <
Copyrights
Auteur: ?
Componist: ?
Uitgever: ?

Reacties

CommonCrawl [Bot]

Volg Muzikum