Eric Clapton
My Father's Eyes Ver 2 (Guitar tab)

Eric Clapton
My Father's Eyes
Tabbed by Jonathan Rider

I've noticed that there are lots of versions with big bits wrong with
them, so I've put all the right parts in one TAB. Make sure you use
lots of vibrato, so you can sound just like the man himself. I don't
have the ending yet, but I'll get it as soon as. Enjoy!

Intro lead:
e|-------------------------------------------------------------------
B|-------------------------------------------------------------------
G|-4/6~~--9-8--9-9~~---11b13--r11-9/6~~4--9-8--9-9--6~--8/6/4/6/8~~--
D|-------------------------------------------------------------------
A|-------------------------------------------------------------------
E|-------------------------------------------------------------------

Sailing down, behind the sun,
Waiting for my prince to come.
Praying for the healing rain
To restore my soul again.

e-------------
B-------------
G----4/6~~----
D-------------
A-------------
E-------------

Just a toerag on the run.

e-------------
B-------------
G---9-8-9-9---
D-------------
A-------------
E-------------

How did I get here?
What have I done?

e---------------
B---------------
G-11b13-r11/9/6-
D---------------
A---------------
E---------------

When will all my hopes arise?

e-------------
B-------------
G--9-8-9-9~~--
D-------------
A-------------
E-------------

How will I know him?
When I look in my father's eyes.
My father's eyes.
When I look in my father's eyes.
My father's eyes.

e------------------
B------------------
G--6~--8/6/4/6/8~~-
D------------------
A------------------
E------------------

Then the light begins to shine
And I hear those ancient lullabies.
And as I watch this seedling grow,
Feel my heart start to overflow.

e---------------
B---------------
G-11b13-r11/9/6-
D---------------
A---------------
E---------------

Where do I find the words to say?

e-------------
B-------------
G--9-8-9-9~~--
D-------------
A-------------
E-------------

How do I teach him?
What do we play?

e---------------
B---------------
G-11b13-r11/9/6-
D---------------
A---------------
E---------------

Bit by bit, I've realized

e-------------
B-------------
G--9-8-9-9~~--
D-------------
A-------------
E-------------

That's when I need them,
That's when I need my father's eyes.
My father's eyes.
That's when I need my father's eyes.
My father's eyes.

Bridge
e|----------------------------------12-11-12-12~-11-11--
B|-12~--12b14--12~--9---------12------------------------
G|---------------------11p9-9---------------------------
D|------------------------------------------------------
A|------------------------------------------------------
E|------------------------------------------------------

Solo
e|------12~--12-11-12-12~---12-11--12h14p12~~12-11-12-12----------------------------
B|-9/12--------------------------------------------------12-10----------------------
G|-------------------------------------------------------------13-11----------------
D|-------------------------------------------------------------------14-12-14/16~~--
A|----------------------------------------------------------------------------------
E|----------------------------------------------------------------------------------


Then the jagged edge appears
Through the distant clouds of tears.
I'm like a bridge that was washed away;
My foundations were made of clay.

e-----1/4~~---
B-------------
G-------------
D-------------
A-------------
E-------------


As my soul slides down to die.
How could I lose him?
What did I try?
Bit by bit, I've realized
That he was here with me;
I looked into my father's eyes.
My father's eyes.
I looked into my father's eyes.
My father's eyes.

My father's eyes.
My father's eyes.
I looked into my father's eyes.
My father's eyes.

  • gogeorge

    Toegevoegd door

    gogeorge op do 18 nov, 2004 12:26 pm

  • <
Copyrights
Auteur: ?
Componist: ?
Uitgever: ?

Reacties

CommonCrawl [Bot]

Volg Muzikum