Eric Clapton

Eric Clapton
River Of Tears (Bass tab)

G G C
G|------(5)--5----|------(5)-5------|--------(10)-10--------|
D|-----5------5---|-----5------5----|------10-------10------|
A|----5--------5--|---5----------5--|---10-------------10---|
E|--3-----------3-|-3--------------3|-8-------------------8-|

C D D
G|---------(10)-10--------|---------(12)-12------|------(12)-12------|
D|-------10-------10------|-------12-------12----|-----12------12----|
A|----10------------10----|----12------------12--|---12----------12--|
E|--8------------------8--|-10-----------------10|-10--------------10|

C C
G|-------(10)-10------|-------(10)-10-----|
D|-----10-------10----|-----10-------10---|
A|---10-----------10--|---10-----------10-|
E|-8-----------------8|-

surfbass

Toegevoegd door surfbass op di 03 aug, 2004 9:37 pm

Auteur: ?
Componist: ?
Uitgever: ?

Reacties

CommonCrawl [Bot]

Volg Muzikum