Eric Clapton
Heaven Is One Step Away (Bass tab)

G|---52-0-|---0----|--------|---0---0|-
D|--2-----|----2-0-|---30---|----202-|-
A|-3------|--2-----|--x---3-|--2-----|-
E|--------|-3------|-1------|-3------|-

this is the riff for the verse, repeat as needed

G|---2----|--------|---2----|--------|---2----|--------|---2----|--------|-
D|----2---|---3----|----2---|---3----|----2---|---3----|----2---|-------0|-
A|-03---3-|--0-3---|-03---3-|--0-3---|-03---3-|--0-3---|-03---3-|--03--2-|-
E|--------|-1----34|--------|-1---234|--------|-1----34|--------|1---3---|-

chorus riff (roughly)


bridge (01:43) goes like...

G|--------|--------|--------|--------|-
D|--------|--------|--------|--------|-
A|0-------|--------|0-------|--------|-
E|--------|1-------|--------|1-------|-

G|--------|--------|--------|--------|-
D|--------|--------|--------|--------|-
A|0-------|--------|--------|--001122|-
E|--------|1-------|3-------|33------|-

  • surfbass

    Toegevoegd door

    surfbass op di 03 aug, 2004 9:30 pm

  • <
Copyrights
Auteur: ?
Componist: ?
Uitgever: ?

Reacties

CommonCrawl [Bot]

Volg Muzikum