Eric Clapton
Classical Gas Ver 1 (Guitar tab)

------------------|-----------------|-------------------|-------------|
-1--------1-------|--0--------------|--0----------------|-------------|
-----2------------|-----------------|-------2-----0-----|-2-----------|
------------------|-----------------|-------------------|-------------|
-0----------------|-----------------|-------------------|-0-----------|

-----------------------------------|--0--------------------|--------------------------
------0----------1-----------3-----|--1---------3---1---3--|-------1---0----------------
----0----------0-----------0-------|---------0-------------|--------------------------
-----------------------------------|-----------------------|---2-----------------------
-----------0-----------2-----------|--3--------------------|-------------------------
-3---------------------------------|-----------------------|--------------------------

-------------------------------|------------------|--------------------------------------
--1-------------1--------0-----|------------------|--0------------------0--------------------
---------2---------------------|------------------|-------2---0---2-----------2--------------
-------------------------------|------------------|-------------------------------------
--0----------------------------|------------------|--------------------------------------
-------------------------3-----|----2---------0---|--0--------------------------------------

--------------------------|--------------------------------|-------------------------------
--------------------------|-----------0-------------0--1---|------------1---3-------------------
--------------------------|--------2-------------0---------|--------2-------------------------
--------------------------|-----2--------------------------|--------------------------------
--0-----------------------|--0-----------------------------|---0-----------------2--------------
--------------------------|-----------------3--------------|--------------------------------

--0--------------------|-----------------|-------------------------------------------------------
---------3---1----3----|--0---1---0------|----------------------------------------------------------
-----------------------|-----------------|-----2-------------0-----2----2----0----------------------
-------------0---------|--2--------------|-----3-------------------0--------------------------------
--3--------------------|-----------------|--------------------------------------------------------
-----------------------|-----------------|------------------------------------------------------

--------------------------------|-------------------------|-----0--------1---------2--------3-
-------------0------------------|-----------1------3---3--|--------1--------1---------1--------3
-2-------2----------------0---1-|-------2-----------------|------------0--------2---------2-------4
-----2----------------0---------|-------------------------|--------------------------------------
-0------------------------------|---0---------------2-----|---------------------------------------
-------------------3------------|-------------------------|-------------------------------------

--4--0--5---0---7---0----|---8--7---5------------5----------|-----5--------------5----------0
-------------------------|-------------8-----------------7--|--------------7------------------
-------------------------|----------------------------------|---------------------------------
-------------------------|----------------------------------|--0------------------------------
-------------------------|---0------------------------------|---------------------------------
-------------------------|----------------------------------|---------------------------------

-8--7---5----------5--------|---------------------------------|--8---7---5--------------5
------------8-------------7-|------8----7----8-----7----------|---------------8--------------7
----------------------------|---------------------------------|-------------------------------
----------------------------|--0------------------------------|---------------------------------
----------------------------|---------------------------------|--0------------------------------
----------------------------|---------------------------------|--------------------------------

  • 2Quick

    Toegevoegd door

    2Quick op do 25 maart, 2004 2:44 pm

  • <
Copyrights
Auteur: ?
Componist: ?
Uitgever: ?

Reacties

CommonCrawl [Bot]

Volg Muzikum