Eric Clapton
Hey Hey Ver 3 (Guitar tab)

Eric Clapton - Hey Hey


||-----------3--0-----9-----9--7--0----------3--0-----9-----9--7--0--------
||-----------0--0-----8-----8----------------0--0-----8-----8--------------
||*----------1--1-----9-----9----------------1--1-----9-----9--------------
||*------------------------------------------------------------------------
||---2/7-----------------------------2/7-----------------------------7-----
||--------0--0--0--0-----0-----0--0-------0--0--0--0-----0-----0--0--------



----3--2--0-----3-----3-----0--2--0----------3--0-----9-----9--7--0--------
----2--2--2-----2-----2-----2--2--2----------0--0-----8-----8--------------
----2--2--2-----2-----2-----2--2--2----------1--1-----9-----9--------------
---------------------------------------------------------------------------
\0--0--0-----0-----0-----0-----0-----2/7-----------------------------------
------------------------------------------0--0--0--0-----0-----0--0--2-----



--------7------------3p2p0-2--0-------0--3--0--2--0---------0-------0------
----10--7--10----------------------------------------3p2p0-----------------
----8---8--8---------------------0h1---------------------------0h1---------
---------------------------------------------------------------------------
------------------0--0-----0-----------------------------------------------
/7--7---7------7-----------------0-----------------------------------------



-||-----0------0-----0-----0-----0------0-----0-----0-----0--0--0--0--0----
-||-----0------0-----0-----0-----0------0-----0-----0-----3--3--3--3--3----
*||-----1------1-----1-----1-----1------1-----1-----1-----1--1--1--1--1----
*||------------------------------------------------------------------------
-||------------------------------------------------------------------------
-||--0------0-----0-----0-----0-----0------0-----0-----0--0--0--0--0--0----
Hey hey Hey hey baby hey


0--0--0---------5-------------5-----------0--0--0--0--0--0--0--0-----------
3--3--0---------7/------------7-/---------3--3--3--3--3--3--3--0-----------
1--1--1---------6-------------6-----------1--1--1--1--1--1--1--1-----------
---------------------------------------------------------------------------
---------------------------------------------------------------------------
0--0--0--5--5-----5--5--5--5-----5--5--0--0--0--0--0--0--0--0--0--7--7-----
Hey hey Hey hey baby hey


-7-------------5-----------0--3--0--2--0---------0-------0---||------------
-9/------------7/-------------------------3p2p0--------------||------------
-8-------------6------------------------------------0h1-----*||------------
------------------------------------------------------------*||------------
-------------------------------------------------------------||------------
---7--7--5--5----5---5--0------------------------------------||------------

  • gibson89

    Toegevoegd door

    gibson89 op ma 05 jan, 2004 1:59 pm

  • <
Copyrights
Auteur: ?
Componist: ?
Uitgever: ?

Reacties

CommonCrawl [Bot]

Volg Muzikum