Eric Clapton

Eric Clapton
You Look Wonderful Tonight Ver 2 (Guitar tab)

chords over this are G, D, C



E-------------------------------------------------------------------------------
B-------------------------------------------------------------------------------
G-----14^-12-14/\/\------14^-12-------------14^-12-14/\/\-12-11-----------------
D--12-----------------12---------14/\/\--12---------------------14-12-----------
A-------------------------------------------------------------------------------
E-------------------------------------------------------------------------------

E-------------------------------------------------------------------------------
B---------------------------------------------------------12-13--15^------------
G-----14^-12-14/\/\------14^-12-------------14^-12-14/\/\-----------------------
D--12-----------------12---------14/\/\--12-------------------------------------
A-------------------------------------------------------------------------------
E-------------------------------------------------------------------------------

OptimusPrime

Toegevoegd door OptimusPrime op do 14 aug, 2003 4:45 pm

Auteur: ?
Componist: ?
Uitgever: ?
Taal: Engels

Reacties

CommonCrawl [Bot]

Volg Muzikum