Eric Clapton

Eric Clapton
Wonerfull Tonight (Guitar tab)

Eric Clapton

Wonderful Tonight Intro.

e-------------------------------------------------------------------------|
b-------------------------------------------------------------------------|
g---14--12-14~~--14b--r14--12--------14b--r14--12--14---------------------|
d-------------------------------14~~--------------------------------------|
a-------------------------------------------------------------------------|
e-------------------------------------------------------------------------|

e----------------------------------------------------------------|
b----------------------------------------------------------------|
g--------/12---------14b--r14--12--14~--14b--r14--12-------------|
d-12--14------14~~---------------------------------------14~~----|
a----------------------------------------------------------------|
e----------------------------------------------------------------|

e------------------------------------------------|
b----------------------12--13--/17v--15~~--------|
g--14b--r14--12--14~~----------------------------|
d------------------------------------------------|
a------------------------------------------------|
e------------------------------------------------|

Enjoy!

OptimusPrime

Toegevoegd door OptimusPrime op do 14 aug, 2003 4:45 pm

Auteur: ?
Componist: ?
Uitgever: ?

Reacties

CommonCrawl [Bot]

Volg Muzikum