Eric Clapton

Eric Clapton
Wonderful Tonite Solo (Guitar tab)

E|------7-------------------|
B|---------10--8--10-------|
G|---7----------------------|
D|--------------------------|
A|--------------------------|
E|--------------------------|

E|------7-------------------|
B|---------10--8-----------|
G|---7------------9--------|
D|--------------------------|
A|--------------------------|
E|--------------------------|


E|------7---------------12�10--7---5---|
B|---------10--8--10---------------------|
G|---7------------------------------------|
D|-----------------------------------------|
A|-----------------------------------------|
E|--------------------------------------|

OptimusPrime

Toegevoegd door OptimusPrime op do 14 aug, 2003 4:45 pm

Auteur: ?
Componist: ?
Uitgever: ?

Reacties

CommonCrawl [Bot]

Volg Muzikum