Eric Clapton

Eric Clapton
Wonderful Tonight Studio Ver 2 (Guitar tab)

It sounds perfect, if you don't beleive me; try it

E|-----------------------------------------------------------
B|----10b-p--8-----10-----------------------------------------
G|-----------------------------------------------------------
D|-----------------------------------------------------------
A|-----------------------------------------------------------
E|-----------------------------------------------------------

E|-----------------------------------------------------------
B|----10b--p--8-----------------------------------------------
G|-----------------9-----------------------------------------
D|-----------------------------------------------------------
A|-----------------------------------------------------------
E|-----------------------------------------------------------

E|-----------------------------------------------------------
B|----10b---p--8------10------10/12-----13-----15/17-------15-
G|-----------------------------------------------------------
D|-----------------------------------------------------------
A|-----------------------------------------------------------
E|-----------------------------------------------------------

OptimusPrime

Toegevoegd door OptimusPrime op do 14 aug, 2003 4:45 pm

Auteur: ?
Componist: ?
Uitgever: ?
Taal: Engels

Reacties

CommonCrawl [Bot]

Volg Muzikum