Eric Clapton

Eric Clapton
Wonderful Tonight (Bass tab)

Artist: Eric Clapton
Song: Wonderful Tonight
Tabbed by: Svamp

Intro:
G|---------------|
D|-0-------------| x2
A|-----4-------0-|
E|---------3-----|

Verse/Chours:
G|-------------------------------|-------------------------|
D|-0---------------0-------------|---------0---------------|x2
A|-----4-------0-------4-------0-|-----0-----4-2-0-------0-|
E|---------3---------------3-----|-3-----------------3-----|

G|---------------|
D|-0-------------|play only the first time. . . .
A|-----4-------0-|
E|---------3-----|

Interlude:

G|---------------------------------------------------------|
D|-0---0-----------0-------------------------0-------------|
A|-------------0-----4-2-0-------0-------0-------4-------0-|
E|---------3-----------------3-------3---------------3-----|

Verse/Chours:
G|-------------------------------|-------------------------|
D|-0---------------0-------------|---------0---------------|
A|-----4-------0-------4-------0-|-----0-----4-2-0-------0-|
E|---------3---------------3-----|-3-----------------3-----|

Ending:
G|---------------------|
D|-0-----------------0-|
A|---4-2-0-------0-----|
E|-----------3---------|

OptimusPrime

Toegevoegd door OptimusPrime op do 14 aug, 2003 4:45 pm

Auteur: ?
Componist: ?
Uitgever: ?
Taal: Engels
Beschikbaar op: Slowhand at 70 (2015), The Cream Of Clapton (1994)

Reacties

CommonCrawl [Bot]

Volg Muzikum