Eric Clapton

Eric Clapton
Tears From Heaven (Guitar tab)

Intro:

-----|---------------------|---------------|--------------|-------------------|
-----|-----2h3p2---5---5-2-|---2---2---2---|-3---3---3--3-|-2---2---2---2-----|
-----|-----------2-4---4-2-|---2---2---2---|-2---2---2--1-|-2---2---2---2-----|
-----|---2-----------------|---------------|--------------|-------------------|
-----|-0-------------------|---------------|--------------|-0-0---0---0-------|
-0h2-|-------------4-4---2-|-2---2-0-0---0-|-2-2---2-0--0-|---------------0h2-|



(plant P on low E)
Verse: M
I A M
|---------------------|---------------|-------------0-----|---------------|
|-----2h3p2---5---5-2-|---2---2---2---|-3---3---2-3-----0-|---0---2---3---|
|-----------2-4---4-2-|---2---2---2---|-2---2---2-------1-|---1---2---4---|
|---2-----------------|---------------|-0-0---0-----------|---------------|
|-0-------------------|---------------|-------------------|---------------|
|-------------4-4---2-|-2---2-0-0---0-|-----------------0-|-0---0---0---0-|
Would you know my name if I saw you in Heaven


(plant P on low E)
M
I A M
|---------------------|---------------|-------------0---|---------------|
|-2---2h3p2---5---5-2-|---2---2---2---|-3---3---2-3---0-|---0---2---3---|
|-2---------2-4---4-2-|---2---2---2---|-2---2---2-----1-|---1---2---4---|
|---------------------|---------------|-0-0---0---------|---------------|
|---0-----------------|---------------|-----------------|---------------|
|-------------4-4---2-|-2---2-0-0---0-|---------------0-|-0---0---0---0-|
Would it be the same if I saw you in Heaven




Chorus:


|-----2-------2---|-----1-------1---|-----0-------0---|---------------|
|---2---2---2---2-|---2---2---2---2-|---3---3---3---3-|-------------2-|
|---2---2---2---2-|---1---1---1---1-|---0---0---0---0-|-3---3---4---3-|
|-----------------|-----------------|-----------------|-4---4---4-----|
|-----------------|-----------------|-----------------|---------------|
|-2-------2-------|-1-------1-------|-0-------0-------|---2---2---2---|
I must be strong and carry on Cause I



|-------------------|----------|
|-----3-------3-----|-3-3----3-|
|-----2-------2-----|-2-2----1-|
|---4---4---4---4---|-2-2----2-|
|-2-------2---------|----------|
|-----------------0-|------0---|
know I don't belong here in heaven.



Bridge:


-----|-----------------|---------------|---------------|---------------|
-----|-----1-------1---|-----1-3---3-3-|---3-------3---|-----3---3---3-|
-----|-----0-------0---|-----0-2---2-0-|---0-------0---|-----0---0---0-|
-----|---2-------2-----|---2---0---0-0-|---0-----0-----|---0-----0---0-|
-0h2-|-3-----3-2-----2-|-0-------------|---------------|---------------|
-----|-----------------|-------2-2-2-3-|-3---3-2-----2-|-0-----2---3---|
Time can bring you down. Time can bend your knees


|-----------------|---------------|---------------|---------------|
|-----1-------1---|-----1-3---3-3-|---3---3---3---|-0---0---2---3-|
|-----0-------0---|-----0-2---2-0-|---0---2---2---|-1---1---2---4-|
|---2-------2-----|---2---0---0-0-|---0-----------|---------------|
|-3-----3-2-----2-|-0-------------|---------------|---------------|
|-----------------|-------2-2-2-3-|-3---3-2-2---2-|-0-0---0---0---|
Time can break your heart. Have you beggin' please, beggin' please.


Alternate to Intro after Bridge

|---9h10p9------12-12-9-|
|----------10-----------|
|-----------------------|
|-----------------------|
|-0---------------------|
|-------------0---------|

OptimusPrime

Toegevoegd door OptimusPrime op do 14 aug, 2003 4:45 pm

Auteur: ?
Componist: ?
Uitgever: ?
Taal: Engels

Reacties

CommonCrawl [Bot]

Volg Muzikum