Eric Clapton

Eric Clapton
Sunshine Of Your Love (Bass tab)

Sunshine of your Love
Cream
Tabbed by the Sexy Bass Man
D Major (4 times)

G ---------------------------
D -------------7-6-5---------
A --5-5--3--5--------5--8--5-
E ---------------------------

G Major (2 times) | Live Version on Volume #2 (2 times)

G -------------7-6-5---------- |G ---------------------------
D --5-5--3--5---------5--8--5- |D ---------------------------
A ---------------------------- |A -------------5-4-3---------
E ---------------------------- |E --3-3--1--3---------3--6--3

D Major (2 times)
G --------------------------
D -------------7-6-5--------
A --5-5--3--5--------5--8--5
E --------------------------

Chorus (3 times)

G ------------------
D ------------------
A ---------3--------
E --5-5-5-----3-----

Final Chorus (8 counts) back to beginning---

G ------------------------------------------
D ------------------------------------------
A ------------------------------------------
E --5-5-5-5-5-5-5-5-5-5-5-5-5-5-5-5-5-5-5-5-

Chorus (4th time thru song)

G -------------------------------------
D -------------------------------------
A -------------------------------------
E --5-5-5-5-5-5-5-5-5-5-5-5-5-5-5-5-5-5..cont.... (fade out)

This is 100% correct

OptimusPrime

Toegevoegd door OptimusPrime op do 14 aug, 2003 4:45 pm

Auteur: ?
Componist: ?
Uitgever: ?
Taal: Engels

Reacties

CommonCrawl [Bot]

Volg Muzikum