Eric Clapton

Eric Clapton
Strange Brew (Guitar tab)

Member Name: the edge
Real Name: Alan Kells
E-mail: akdookie@hotmail.com

Im tryin out some shareware called bucket o tab on this one. it aint me fault if you cant translate it!!!!! (key at bottom)

Strange Brew

Intro

A7 e e e e e e e s s s s Repeat 3 times D9 e e e e e e
-|--------5--r--r-------r----------|-------------------||---------5--r--r-------
-|--------8--e--e-------e----------|-------------------||---------5--e--e-------
-|--------6--s--s-------s----------|-------------------||*--------5--s--s-------
-|--------5--t--t-------t--5--5h7--|-------------------||*--------4--t--t-------
-|--------7--------6h7-------------|-------------------||---5--5--5--------6----
-|--5--5--5------------------------|-------------------||-----------------------


e s s s s A7 e e e e e e e s s s s E7(9+)e e e e e
----r-----------||---||---------5--r--r-------r------------||-----------r--r----
----e-----------||---||---------8--e--e-------e------------||--------8--e--e----
----s----------*||---||*--------6--s--s-------s-----------*||--------7--s--s----
----t--5--5h7--*||---||*--------5--t--t-------t--5--5h7---*||--------6--t--t----
h7--------------||---||---------7--------6h7---------------||--7--7--7----------
----------------||---||---5--5--5--------------------------||-------------------


e e s s s s D7(9+) e e e e e e e s s s s e e e e e e
-----r-----------|--------------r--r-------r----------||---------5--r--r--------
-----e-----------|-----------6--e--e-------e----------||---------8--e--e--------
-----s-----------|-----------5--s--s-------s----------||*--------6--s--s--------
-----t--5--5h7---|-----------4--t--t-------t--5--5h7--||*--------5--t--t--------
6h7--------------|-----5--5--5--------6h7-------------||---------7--------6-----
-----------------|------------------------------------||---5--5--5--------------


e s s s s
----r-----------||--------------------------------------------------------------
----e-----------||--------------------------------------------------------------
----s----------*||--------------------------------------------------------------
----t--5--5h7--*||--------------------------------------------------------------
h7--------------||--------------------------------------------------------------
----------------||--------------------------------------------------------------


Guitar Solo on Intro

A7 w q E s q E s q h s s s s q q h D9
-|----------|-------------------------|-----r--r--------|-------r---|--(8)------
-|--(8)h10--|--(8)h10--8--------------|-----e--e--------|-------e---|-----------
-|----------|-------------7--7--5--7--|--5--s--s--9p7p5p|p---5--s---|-----------
-|----------|-------------------------|-----t--t--------|-7-----t---|-----------
-|----------|-------------------------|-----------------|-----------|-----------
-|----------|-------------------------|-----------------|-----------|-----------


w q e e q q A7 H e^ e^e^ s q s q e e q E7(9+)
p5--|--(8)p5--r--(8)p5---------|-----r-------|-----8---------r--------|---------
----|---------e----------------|-----e-------|--8-----10l10--e--8l8---|---------
----|---------s---------7--5---|-----s--8h9--|---------------s--------|---------
----|---------t----------------|--7--t-------|---------------t--------|---------
----|--------------------------|-------------|------------------------|---------
----|--------------------------|-------------|------------------------|---------


w D7(9+) w A7 q h e e e e e e q q
r---|-----r---|--r-----------|----------------r--||-----------------------------
e---|-----e---|--e--4--8--5--|----------------e--||-----------------------------
s---|-----s---|--s-----------|--7--5----------s--||-----------------------------
t---|-----t---|--t-----------|--------7-------t--||-----------------------------
----|---------|--------------|-----------7l7-----||-----------------------------
----|---------|--------------|-------------------||-----------------------------


Then for rythm guitar play twice

A7 D9 A7 A7 D9 D9 A7 A7 E7(9+) D7(9+) A7 A7

and after that repeat the whole sequence starting from Intro

================================================================================
== TABLATURE EXPLANATION ==
================================================================================

---------- ----------
----5h8--- Hammeron ----(8)--- Ghost Note
---------- ----------
----5p8--- Pulloff ----------

---------- ----------
----5/8--- Slide Up -----x---- Dead Note
---------- ----------
----5\8--- Slide Down ----------

---------- ||------|| Repeat Start & End
----5~~~-- Vibrato ||*----*||
---------- ||*----*||
---------- ||------||

Rhythm:
w = whole note W = dotted whole
h = half note H = dotted half
q = quarter note Q = dotted quarter
e = eighth note E = dotted eighth
s = sixteenth note S = dotted sixteenth
^ = triplet

l = legato (prolong duration of note)

================================================================================
== Created with a shareware version of the BUCKET 'O TAB ==
== tablature creation software for Windows ==
== For more information: ==
== email: gse@ocsystems.com ==
== US Mail: The Bucket, 3176-B5 Summit Square Dr., Oakton, VA 22124 ==
================================================================================

OptimusPrime

Toegevoegd door OptimusPrime op do 14 aug, 2003 4:45 pm

Auteur: ?
Componist: ?
Uitgever: ?
Taal: Engels

Reacties

CommonCrawl [Bot]

Volg Muzikum