Eric Clapton

Eric Clapton
Signe Ver 3 (Guitar tab)

Eric Clapton - Signe (Unplugged)



Intro:

|------------0--|-----0---------|-------0----0--|-----0---------|
|----2----0-----|--2--------0---|----2----0-----|--2--------0---|
|----2----1-----|--2--------1---|----2----1-----|--2--------1---|
|----2----2-----|-----------2---|----2----2-----|-----------2---|
|--0----0-------|--0-----0------|--0------------|--0-----0------|
|---------------|---------------|---------------|---------------|


|-------0----0--|-----0---------|-------0----0--|-------|-------------|
|----2----0-----|--2--------0---|----2----0-----|---2---|----------0--|
|----2----1-----|--2--------1---|----2----1-----|---2---|-----1h2-----|
|----2----2-----|-----------2---|----2----2-----|-------|-------------|
|--0------------|--0-----0------|--0------------|---0---|-------------|
|---------------|---------------|---------------|-------|--0----------|

First time play (3), second time (2)

|-----0-------0--|-----4-------------|----(2)---------|-----0------------| --|
|--2--------2----|--5----------------|--3-(3)----3p2--|--0--------3p2-0--| |
|--2--------2----|--4--------3-h-4---|--4--------4----|--1---------------| |
|----------------|-------------------|----------------|------------------| |
|--0-----0-------|--4----------------|--2-----2-------|------------------| |
|----------------|--------2----------|----------------|--0-----0---------| |
|
|
|-----0----------|-----2-------------|-----2----------|-----0------------| |
|--2--------2p0--|----------------2--|--3--------3p2--|--0--------0------| |
|--2--------2----|--3--------3h4-----|--4--------4----|--1----------2p1--| |
|----------------|--4----------------|----------------|------------------| |
|--0-----0-------|-------------------|--2-----2-------|------------------| |
|----------------|--2-----2----------|----------------|--0-----0---------| |
| x2
|
|-----0--------0--|-----0--------0--|-----0--------0--|-----0------------| |
|--2--------2-----|--3--------3-----|--3--------3-----|--3--------0------| |
|--2--------2-----|--2--------2-----|--2--------2-----|--1----------2p1--| |
|-----------------|-----------------|-----------------|------------------| |
|--0-----0--------|-----------------|-----------------|------------------| |
|-----------------|--2-----2--------|--0-----0--------|--0-----0---------| |
|
|
|-----0--------0--|-----0--------0--|-----0--------0--|-----0------------| |
|--2--------2-----|--3--------3-----|--3--------3-----|--3------------0--| |
|--2--------2-----|--2--------2-----|--2--------2-----|--1--------1h2----| |
|-----------------|-----------------|-----------------|------------------| |
|--0-----0--------|-----------------|-----------------|------------------| |
|-----------------|--2-----2--------|--0-----0--------|--0-----0---------| --|


|--------------|--------------2--|-----2----------|-----0------------|
|-----5--5--5--|--2--------2-----|--3--------3p2--|--0------------0--|
|-----4--4--4--|--2--------2-----|--4--------4----|--1--------1h2----|
|--------------|-----------------|----------------|------------------|
|--4-----4--4--|-----------------|--2-----2-------|------------------|
|--------------|--2--2--2--------|----------------|--0-----0---------|


|--------------|-----------------|-----2----------|-----0------------|
|-----5--5--5--|--2--------2--2--|--3--------3p2--|--0------------0--|
|-----4--4--4--|--2--------2-----|--4--------4----|--1--------1h2----|
|--------------|-----------------|----------------|------------------|
|--4-----4--4--|-----------------|--2-----2-------|------------------|
|--------------|--2--2--2--------|----------------|--0-----0---------|


|--------------|--------------2--|-----2----------|-----0------------|
|-----5--5--5--|--2--------2-----|--3--------3p2--|--0--------0------|
|-----4--4--4--|--2--------2-----|--4--------4----|--1----------2p1--|
|--------------|-----------------|----------------|------------------|
|-----4--4--4--|-----------------|--2-----2-------|------------------|
|--------------|--2--------------|----------------|--0-----0---------|


|-----0--------0--|-----0--------0--|-----0--------0--|-----0------------|
|--2--------2-----|--3--------3-----|--3--------3-----|--3--------0------|
|--2--------2-----|--2--------2-----|--2--------2-----|--1----------2p1--|
|-----------------|-----------------|-----------------|------------------|
|--0-----0--------|-----------------|-----------------|------------------|
|-----------------|--2-----2--------|--0-----0--------|--0-----0---------|


|-----0--------0--|-----0--------0--|-----0--------0--|-----0------------|
|--2--------2-----|--3--------3-----|--3--------3-----|--3------------0--|
|--2--------2-----|--2--------2-----|--2--------2-----|--1--------1h2----|
|-----------------|-----------------|-----------------|------------------|
|--0-----0--------|-----------------|-----------------|------------------|
|-----------------|--2-----2--------|--0-----0--------|--0-----0---------|


|-----0-----0-----4-----2--|-----3----------|-----0------------|
|--2-----3-----5-----2-----|--3--------3p2--|--0--------0------|
|--2-----2-----4-----2-----|--4--------4----|--1----------2p1--|
|--------------------------|----------------|------------------|
|--0-----------4-----------|--2-----2-------|------------------|
|--------2-----------2-----|----------------|--0-----0---------|


|-----0----------|-----2-------------|-----2----------|-----0----------------------|
|--2--------2p0--|----------------2--|--3--------3p2--|--0-------2h3p2h3p2h3p2h3p2-|
|--2--------2----|--3--------3h4-----|--4--------4----|--1-------------------------|
|----------------|--4----------------|----------------|----------------------------|
|--0-----0-------|-------------------|--2-----2-------|----------------------------|
|----------------|--2-----2----------|----------------|--0-----0-------------------|


|-----0--------0--|-----0--------0--|-----0--------0--|-----0------------|
|--2--------2-----|--3--------3-----|--3--------3-----|--3--------0------|
|--2--------2-----|--2--------2-----|--2--------2-----|--1----------2p1--| x5
|-----------------|-----------------|-----------------|------------------|
|--0-----0--------|-----------------|-----------------|------------------|
|-----------------|--2-----2--------|--0-----0--------|--0-----0---------|


|-----0--------0--|-----0--------0--|-----0--------0--|-----0------------|--5--|
|--2--------2-----|--3--------3-----|--3--------3-----|--3--------0------|--2--|
|--2--------2-----|--2--------2-----|--2--------2-----|--1----------2-1--|--2--|
|-----------------|-----------------|-----------------|------------------|--2--|
|--0-----0--------|-----------------|-----------------|------------------|--0--|
|-----------------|--2-----2--------|--0-----0--------|--0-----0---------|-----|

OptimusPrime

Toegevoegd door OptimusPrime op do 14 aug, 2003 4:45 pm

Auteur: ?
Componist: ?
Uitgever: ?

Reacties

CommonCrawl [Bot]

Volg Muzikum