Eric Clapton

Eric Clapton
Signe Ver 2 (Guitar tab)

SIGNE -Eric Clapton (Unplugged)
=====
The hard part of this song is to get the timing right.
Start by playing the chords only when listening to the CD.
Then, add the bass notes, and finally the hammer-on's and pull-off's.

I don't remember the exact order of the parts, but you'll find out.
(Try: Intro, Part 1, 1, 2, 2, 1, 1, 3, 3, 1, 1, End )

Intro:
A E/A A E/A A
--------------0----]--------------0----] play ]---------------]
-----2-----0-------]-----2-----0-------] this ]--2---------0--]
-----2-----1-------]-----2-----1-------] a few ]--2-----1h2----]
-----2-----2-------]-----2-----2-------] times, ]--2------------]
--0-----0----------]--0-----0----------] then ]--0------------]
-------------------]-------------------] ]---------------]

Part 1:
A D9/F# D9/E E
]----0-------0--]----0------0--]----0------0--]----0----------]
]--2-------2----]--3------3----]--3------3----]--0---------0--]
]--2-------2----]--2------2----]--2------2----]--1-----1h2----]
]---------------]--------------]--------------]---------------]
]--0-----0------]--------------]--------------]---------------]
]---------------]--2----2------]--0----0------]--0---0--------]

Part 2:

A F# Bm E
----0----------]----2-----------]----2---------]----0----------]
--2-------2p0--]-------------2--]--3------3p2--]--0---------0--]
--2-------2----]--3------3h4----]--4------4----]--1-----1^2----]
---------------]--4-------------]--------------]---------------]
--0-----0------]----------------]--2----2------]---------------]
---------------]--2----2--------]--------------]--0---0--------]

Part 3:

C#m7 F#m7 Bm E
--4--4--4--4--]----2------2--]----2---------]----0----------]
--5--5--5--5--]---------2----]--3------3p2--]--0---------0--]
--4--4--4--4--]--2------2----]--4------4----]--1-----1^2----]
--------------]--2-----------]--------------]---------------]
--4--4--4--4--]--------------]--2----2------]---------------]
--------------]--2----2------]--------------]--0---0--------]

End:
A A
--------------]--5----]
--2--2--2--2--]--2----]
--2--2--2--2--]--2----]
--2--2--2--2--]--2----]
--0--0--0--0--]--0----]
--------------]-------]

OptimusPrime

Toegevoegd door OptimusPrime op do 14 aug, 2003 4:45 pm

Auteur: ?
Componist: ?
Uitgever: ?
Taal: Engels

Reacties

CommonCrawl [Bot]

Volg Muzikum