Eric Clapton

Eric Clapton
Roll It Over (Guitar tab)

Member Name: the edge
Real Name: Alan Kells
E-mail: akdookie@hotmail.com

TUNING: E B E G# B E

E (w RIFF)
Go down easy and let me take my time
A E (w RIFF)
Go down easy and let me take my time
G F# F E (w RIFF)
Rock me slow till I lose my mind

Roll it over, let's take it from behind
Roll it over, let's take it from behind
Told me love, God knows it ain't no crime

CHORUS:
F# G# C#m1 C#m2 C#m3 C#m2 C#m1
You don't know how much it means to me
F# G# C#m E A (n.c.)
Here in your arms
E (w RIFF)
Roll it over Roll it over

REPEAT FIRST VERSE
REPEAT SECOND VERSE
CHORUS

Hey! (...SOLO OVER VERSE)


RIFF (slightly bend fingered notes):
E -0---0-3-0---0---
B -0-3-0-3-0-3-0---
G# ---3-------3-----
E -----------------
B -----------------
E -----------------

CHORDS:
E A G F# F G# C#m1 C#m2 C#m3
E -0--5--3--2--1--4---0----0----0--
B -0--5--3--2--1--4---2----4----5--
G# -0--5--1--2--1--4---0----0----0--
E -0--5--3--2--1--4---0----0----0--
B -0--5--x--2--1--4---2----4----5--
E -0--5--3--2--1--4---0----0----0--

OptimusPrime

Toegevoegd door OptimusPrime op do 14 aug, 2003 4:45 pm

Auteur: ?
Componist: ?
Uitgever: ?
Taal: Engels

Reacties

CommonCrawl [Bot]

Volg Muzikum