Eric Clapton
Outside Women Blues (Guitar tab)

Band: Eric Clapton - Outside Women Blues

b= Bend

E------------------------------------------------------------
B---------------------------8--------------------------------
G---------------------------7--------------------------------
D---------------------------6-----------------2--------0-----
A---------------------------7-------2-----4------0--2--------
E-------0--------0-------------------------------------------


E------------------------------------------------------------
B---------------------------8--------------------------------
G---------------------------7--------------------------------
D---------------------------6-----------------2--------0-----
A---------------------------7-------2-----4------0--2--------
E-------0--------0-------------------------------------------


E------------------------------------------------------------
B------------------------------------------------------------
G-------12--14-14(bu)--14---12-------12---------------------
D----14-------------------------14--------14----------------
A-----------------------------------------------------------
E-----------------------------------------------------------

**********Repeat until chorus**********

*******chorus********

E------------------------------------------------------------
B-----------------------------------------------------------
G--------1-----------2------------12--14-14(bu)-14-12---12
D--------1-----------1--------14----------------------14--14-
A--2-2---2---2---2---2---------------------------------------
E------------------------------------------------------------


Enjoy!

Copyrights
Auteur: ?
Componist: ?
Uitgever: ?
Meer details
Taal: Engels

Reacties

CommonCrawl [Bot]

Volg Muzikum