Eric Clapton
Layla Solo Unplugged (Guitar tab)

Artist: Eric Clapton
Song: Layla Solo (Unplugged)
Tabbed by: Rhyknow17



E|--------------------------------------------------------------------|
B|-10-10------10---10-10------10--------------------------------------|
G|-10-10------10---10-10------10--------------------------------------|
D|---------12--------------12--------12-10----------------------------|
A|-----------------------------------------12-11-10----10-------------|
E|--------------------------------------------------13----13-10---13--|

|-/8--8--8---/8--8--8---/8--8--8---/8--8--8---/8--8--8---/8--8--8---|
|-/10-10-10--/10-10-10--/10-10-10--/10-10-10--/10-10-10--/10-10-10--|
|-------------------------------------------------------------------|
|-------------------------------------------------------------------|
|-------------------------------------------------------------------|
|-------------------------------------------------------------------|

|-------10----------------------------10-12-10h12p10----10-------------------
|----13-------------------------10-13----------------13----13-10---10-10-10--
|----------12----12-10----10-12----------------------------------------------
|-------------12-------12----------------------------------------------------
|----------------------------------------------------------------------------
|----------------------------------------------------------------------------

|---------------------------------------------------------------------|
|-11--10----------------------------5-6-5h6p5-------------------------|
|----------12-10-9---7h9p7----5---7-----------7-5---------------------|
|-------------------------------7-----------------7-6-5---5-----------|
|-------------------------------------------------------8---8-5-------|
|---------------------------------------------------------------------|

|-13--10~------10-12---10h12p10------------------------------|
|-----------13--------------------13----10----10-------------|
|------------------------------------------12----12p10-------|
|-----------------------------------------------------12-----|
|------------------------------------------------------------|
|------------------------------------------------------------|

|-10----13-10----------15p13-15---15-13~----------12-13-15--13-15-x-|
|----10----------13----------------------------15-------------------|
|-------------------------------------------14----------------------|
|-------------------------------------------------------------------|
|-------------------------------------------------------------------|
|-------------------------------------------------------------------|

|-12-13----10---------------------------------10------------------|
|-------------13-10---------13----10----------10----/10-/10-/10---|
|-------------------12---10----12----12-10----10----/9--/9--/9----|
|------------------------------------------12---------------------|
|-----------------------------------------------------------------|
|-----------------------------------------------------------------|

|--------------------------------------||
|--------------------------------------||
|-9h10-7-----5-------------------------||
|--------------7-6---5-----------------||
|----------------------8---------------||
|--------------------------------------||

Copyrights
Auteur: ?
Componist: ?
Uitgever: ?
Meer details
Taal: Engels

Reacties

CommonCrawl [Bot]

Volg Muzikum