Eric Clapton
Layla (derek And The Dominos) (Guitar tab)

Tuning: Standard

This is a real great song. I coulnd'nt only find out the main part, but I'm working on the rest

Intro:

Guitar1
|------------------------------|
|------------------------------|
|------------------------------|
|--------0--3--0-----0---------|
|---0--3----------3------------|
|------------------------------|

Guitar2:

|---------------------------------|
|---------------------------------|
|---3--3--3----5--5--5---7--7--7--|
|---3--3--3----5--5--5---7--7--7--|
|---1--0--1----3--0--3---5--0--5--|
|---------------------------------|


Guitar1:

E|----------10--13-10-----10--|
B|--10--13------------13------|

after that:

1st and 3th time:

E|--15--13--12------10--|
B|--------------13------|

Every 2nd and 4th time:

E|--15h17--15--12------10--|
B|-----------------13------|

Guitar2 in those two parts:

G|---5--5--5---3--3--3---7--7--7--|
D|---5--5--5---3--3--3---7--7--7--|
A|---3--0--3---1--0--1---5--0--5--|

Have fun with it........the rest will come in some time
if you have anything good for corrections, please mail me alex@fn.catv.ne.jp

Copyrights
Auteur: ?
Componist: ?
Uitgever: ?
Meer details
Taal: Engels

Reacties

CommonCrawl [Bot]

Volg Muzikum