Eric Clapton
Layala (Guitar tab)

Song: Layla

Artist: Eric Clapton

b=bend
h=hammer on (and pull off)

Intro:

E/------------------------------------------
B/------------------------------------------
G/-----------------------5-3-----5------7--- X2
D/--------0-3h-0---0-----5-3-----5------7---
A/---0-3h--------3-------3-1-----3------5---
E/---------------------------0-3----0-3-----


Main Riff:

E/---------10-13h-10----10---13b-13-12-10-----------10-13h-10---10---15h-13-12----10--
B/---10-13h----------13----------------------10-13h-----------13---------------13-----
G/------------------------------------------------------------------------------------ Repeat
D/------------------------------------------------------------------------------------
A/------------------------------------------------------------------------------------
E/------------------------------------------------------------------------------------

Verse:

E/-----------------------------------------------------------------------
B/-----------------------------------------------------------------------
G/---7-7-7-7-----------7-7--5--7--9------5-5--9-9-7--7----5-9-9-7-7-7-7-7
D/---7-7-7-7--7-7-7-7--7-7--5--7--9--5-5-5-5--9-9-7--7--5-5-9-9-7-7-7-7-7
A/---5-5-5-5--7-7-7-7--5-5--3--5--7--5-5-3-3--7-7-5--5--5-3-7-7-5-5-5-5-5
E/------------5-5-5-5----------------3-3----------------3----------------


Intro
Main riff
Verse
Main riff

Solo:

E/---14bu-14bd-13--9-15-15-14-14-13-13-11-11-9-9--11--9--13-13b-9-13b-9---

E/---9-15-15-15-14-14-13-11-11-13-14-14-13-13-11-9-9-11-13-13-11-9----9---
B/-----------------------------------------------------------------10-----

Copyrights
Auteur: ?
Componist: ?
Uitgever: ?
Meer details
Taal: Engels

Reacties

CommonCrawl [Bot]

Volg Muzikum