Eric Clapton
La-yla (Guitar tab)

Song: Layla
Artist: Eric Clapton
Tabber: Some Guy

Ok this is a great song, it involves quit a bit of timing and skill in order to get down
perfectly to play so good luck. this tab is about 99.9% perfect.

h-Hammer ENJOY!!!


E--------10-13-10--------10--13------13----12---
B-10h13-------------13--------------------------
G-----------------------------------------------
D-----------------------------------------------
A-----------------------------------------------
E-----------------------------------------------

E-----10----------10-13-10-------------
B-13------10-13---------------13-------
G--------------------------------------
D--------------------------------------
A--------------------------------------
E--------------------------------------

E---10-----15-----15-----12------------
B------------------------------13------
G--------------------------------------
D--------------------------------------
A--------------------------------------
E--------------------------------------

E---10----------10-13-10---------------
B--------10h13--------------13-----13--
G--------------------------------------
D--------------------------------------
A--------------------------------------
E--------------------------------------

E-4---4------4------4------4----4---4---4--
B-5---5------5------5------4----4---4---4--
G-6---6------6------6------4----4---4---4--
D-6---6------6------6------6----6---6---6--
A-4---4------4------4----------------------
E------------------------------------------

E---4-----4-------------------- This part isnt very easy for figuring out
B---5-----5-------5-------7---- the timing of the strumming so your going
G---6-----6-------5-------7---- to have to listen for the song for a way
D---6-----6-------5-------7---- better idea.
A---4-----4-------3-------5----
E------------------------------

E--------------------------2-----2------2------
B-9----9----9--9--9-----2-----2------2-----4---
G-9----9----9--9--9-----2-----2------2-----4---
D-9----9----9--9--9-----2-----2------2-----4---
A-7----7----7--7--7-----4-----4------4-----2---
E--------------------------2------2-----2------

E---------------0------0-------0---0----0-----0--
B-4--4--4---0------0------0--0-------2-----2-----
G-4--4--4---1------1------1--1-------2-----2-----
D-4--4--4---2------2------2--2-------2-----2-----
A-2--2--2---2------2------2--2-------0-----0-----
E---------------0------0-------0---0-------------

E-2-------2---------2----2-------------------
B-2-------2---------2----2------4-------4----
G-2-------2---------2----2------4-------4----
D-2-------2---------2----2------4-------4----
A-4-------4---------4----4------2-------2----
E--2-------2---------2----2------------------

E--------------------10--13--10---------
B----------------------------------13---
G----------10h13------------------------
D-2-------------------------------------
A-2-------------------------------------
E---0-----------------------------------

E-10-----------13------13----12--------10---------10-13-10------
B----------------------------------13------10h13------------13--
G---------------------------------------------------------------
D---------------------------------------------------------------
A---------------------------------------------------------------
E---------------------------------------------------------------

E---10-----15-----15-----12-----------10---------10-13-10-------
B------------------------------13---------10h13-------------13--
G---------------------------------------------------------------
D---------------------------------------------------------------
A---------------------------------------------------------------
E---------------------------------------------------------------

E-10----13------13-----12--------10-------------10-13-10--10---15---15--12--
B----------------------------13---------10h13-------------13----------------
G---------------------------------------------------------------------------
D---------------------------------------------------------------------------
A---------------------------------------------------------------------------
E---------------------------------------------------------------------------

E------10---15----15----12--------10----------10-13-10--------
B-13-------------------------13--------10h13--------------13--
G-------------------------------------------------------------
D-------------------------------------------------------------
A-------------------------------------------------------------
E-------------------------------------------------------------

E-10----15-----15----12------10-----------10-13-10--10----13--13--12--
B------------------------13-------10h13----------------13-------------
G---------------------------------------------------------------------
D---------------------------------------------------------------------
A---------------------------------------------------------------------
E---------------------------------------------------------------------

E------10----------10--13--10------10---15---15---12--10--------10-13-10-----
B-13--------10h13--------------13---------------------13--10h13----------13--
G----------------------------------------------------------------------------
D----------------------------------------------------------------------------
A----------------------------------------------------------------------------
E----------------------------------------------------------------------------

Copyrights
Auteur: ?
Componist: ?
Uitgever: ?
Meer details
Taal: Engels

Reacties

CommonCrawl [Bot]

Volg Muzikum