Eric Clapton
House Of The Rising Sun (Guitar tab)

Tabber:spuier
Tuning : EADGBe

Part 1
Am C D F
e----------------0-------------------------0----------------------------2--------------------------1---------------
B-----------1-------1---------------1----------1-----------------3----------3----------------1----------1------
G-------2--------------2-------0------------------0--------2-------------------2--------2------------------2---
D------------------------------------------------------------0-----------------------------3------------------------
A---0----------------------3-------------------------------------------------------
E-----------------------------------------------------------------------------------

Part 2
Am C E7 E7
e---------------0-----------------------0-----------------------0----------------------0----------
B----------1-------1---------------1-----1----------------0------0--------------0------0-------
G------2---------------2-------0-------------0--------1-------------1------1---------------1---
D-----------------------------------------------------------------------------------------------------
A---0-----------------------3----------------------------------------------2------------------------
E----------------------------------------------------0------------------------------------------------

Part 3
Am C D F
e---------------0----------------------0----------------------3----------------------1------------
B----------1------1---------------1-----1---------------2------2--------------1------1--------
G------2--------------2-------0-------------0-------3-------------3-------2--------------2---
D--------------------------------------------------0----------------------3---------
A---0----------------------3-------------------------------------------------------
E-----------------------------------------------------------------------------------

Part 4
Am E7 Am E7
e---------------0---------------------0---------------------0-----------------------0----------
B-----------1-----1--------------0------0-------------1------1---------------0------0------
G-------2------------2-------1-------------1------2-------------2--------1-------------1---
D------------------------------------------------------------------------------------------------
A---0--------------------------------------------0----------------------------------------------
E--------------------------0--------------------------------------------0-----------------------

That's all it is really you just need to repeat it a few more times that'll be it!!!!!!!!!!!!!!

P.S PLEASE,PLEASE,PLEASE RATE THIS TAB!!!!!!!!!!!!!!!!!!!!!!!!!!!!!!!!!!!!!!!!!!!!!!

Copyrights
Auteur: ?
Componist: ?
Uitgever: ?
Meer details
Taal: Engels

Reacties

CommonCrawl [Bot]

Volg Muzikum