Eric Clapton
Get Lost (Guitar tab)

Author/Artist: Eric Clapton
Title: Get Lost
Transcribed by: Robert Karlsson
Email: bobbe@welho.com

-----------------|-----------------|-----------------|-------------------|----
---2-------2-----|---2-------------|---3-------3-----|-----------------0-|----
-------2-------2-|-------1---------|-------2---------|---2---0h1---2-----|----
-----0-----------|-----0-----------|-----0-----------|-----2-------------|----
-----------------|-----------------|-2---------------|-------------------|----
-2---------------|-0---------------|-----------------|-0-----------------|-2--


---------------|-----------------|-----------------|-------------------|------
-2-------2-----|---2-------------|---3-------3-----|-----------------0-|------
-----2-------2-|-------1---------|-------2-------2-|---2---0h1---2-----|------
---0-----------|-----0-----------|-----0-----------|-----2-------------|------
---------------|-----------------|-2---------------|-------------------|------
---------------|-0---------------|-----------------|-0-----------------|------


---------------|-----------------|-----------------|---------------------|----
-----------7-5-|-----7-------5---|-----------------|---------------------|----
-------4/6-----|-------6-------7-|-----------------|-6h7--6-4--4h6-------|----
---------------|-----------------|-----------------|---------7-------7-4-|----
---------------|-----------------|-----------------|---------------------|----
---------------|-----------------|-----------------|---------------------|----


-----------------|------------------|-----------------|---------------------|-
-------------7-5-|-----7-7/9---10-7-|-----------------|-----------------5---|-
---------4/6-----|------------------|-----------------|-6h7--6-4--4h6-----6-|-
-----------------|------------------|-----------------|---------7-----------|-
-----------------|------------------|-----------------|---------------------|-
-----------------|------------------|-----------------|---------------------|-


------------------------------------------------------------------------------
------------------------------------------------------------------------------
------------------------------------------------------------------------------
------------------------------------------------------------------------------
------------------------------------------------------------------------------
------------------------------------------------------------------------------

Copyrights
Auteur: ?
Componist: ?
Uitgever: ?

Reacties

CommonCrawl [Bot]

Volg Muzikum