Eric Clapton
Danny Boy Accoustic Ver 2 (Guitar tab)

Danny Boy accoustic (instrumental)
Tabbed By Daniel Jones (SASDAN)
Best done with fingers or finger picking
No tuning needed just standard

Any comments questions death threats or a thakyou would be appreciated sent to

Katana134@hotmail.com

please do not take credit for this tab you can use it for teaching, personal use and
to show friends do not copy. if you would like to use on your site etc please email me please email on the above address
thankyou.
dont forget to rate this tab

this tab is recommended for intermediate users
Good luck.

Key
~ = Vibrato
/ = Slide up
= Slide Down
h = Hammer Down
p = Pull off



Ok here goes

Intro
Thats a nice intro isnt it :)
e|-------------------------------------------------------------|
B|-------------------------------------------------------------|
G|---------------2h3-0----------------------0h2-0--------------|
D|----0-2~~-0-2~------1/2-0-------------3-4------0h2p0------2-0|
A|2-3-----------------------3-0---3-1/3-----------------1/3----|
E|-------------------------------------------------------------|

Remember eric clapton always has his strings on a little loose
so that gives it a twanging sound

now its into the song or end intro

e|---------------------------------------------------------|
B|---------------------------------------------------------|
G|-------------2h3-0---------------------0h2-0-------------|
D|-----0/2~-0-2------1/2-0-------------3------0h2p0------2-|
A|-2-3--------------------3-0---3-1/3----------------1/3---|
E|---------------------------------------------------------|

Im working on it for more ok wait or email me...

Copyrights
Auteur: ?
Componist: ?
Uitgever: ?
Meer details
Taal: Engels

Reacties

CommonCrawl [Bot]

Volg Muzikum