Eric Clapton
Cocaine Ver 6 (Guitar tab)

By Jesse nyboe

e-----------------------------------------------------------
b-----------------------------------------------------------
g----7---7---5---7---5---7---5---------------------------
d----7---7---5---7---5---7---5---------------------------
a----5---5---3---5---3---5---3---------------------------
e-----------------------------------------------------------

e-----------------------------------------------------------
b-----------------------------------------~ Hold~--------
g----7---7---7-/--5---5---5-/--3---3---------------3----
d----7---7---7-/--5---5---5-/--3---3---------------3----
a----5---5---5-/--3---3---3-/--1---1---------------1----
e-----------------------------------------------------------

On very last power chord, strike then hit it to mute it.
Use Bar Power Chords.
This song is definately power chords!!!

Copyrights
Auteur: ?
Componist: ?
Uitgever: ?
Meer details
Taal: Engels

Reacties

CommonCrawl [Bot]

Volg Muzikum