Eric Clapton
Cocaine Ver 5 (Guitar tab)

1--7--7----5-----7-------5--------------------------------
2--7--7----5-----7-------5--------------------------------
3--9--9----7-----9-------7--------------------------------all this 8 times
4--9--9----7-----9-------7--------------------------------
5--9--9----7-----9-------7--------------------------------
6--7--7----5-----7-------5--------------------------------

1---7-------5-------3----2--------------------------------
2---7-------5-------3----2--------------------------------
3---9-------7-------5----4--------------------------------this 1 time
4---9-------7-------5----4--------------------------------
5---9-------7-------5----4--------------------------------
6---7-------5-------3----2--------------------------------

Once you get to the second line you go back to the first line and do it over and that is the whole song

Copyrights
Auteur: ?
Componist: ?
Uitgever: ?
Meer details
Taal: Engels

Reacties

CommonCrawl [Bot]

Volg Muzikum